PrimaNota.ru - самый крупный в мире бесплатный архив песенных текстов, аккордов, табулатур и нот


Cult - Memphis Hip Shake - текст песни, таба, видео

Регистрация Запомнить меня
Войти через:  Facebook Google Twitter Vk Yandex Mail.ru

Cult - Memphis Hip Shake - текст песни, таба, видео

Печатать
Просмотров: 112
Авторы музыки: Billy Duffy
Авторы текста: Ian Astbury
Memphis Hip Shake
By The Cult

There really aren't enough Cult tabs out there, and they have some 
of the most kick ass riffs I have ever heard.

Standard Tuning
~ ~ ~ ~ ~ ~ ~ ~ ~ ~ ~ ~ ~ ~ ~ ~ ~ ~ ~ ~ ~ ~ ~ ~ ~ ~ ~ ~ ~ ~ ~ ~ ~

E|--------------------------------------------------------------|
B|--------------------------------------------------------------|
G|-2-2-2-5-5-5/4-2-2---2---2-2-2-5-5-5/7-2-2---2----------------|
D|-2-2-2-5-5-5/4-2-2---2---2-2-2-5-5-5/7-2-2---2----------------|
A|-0-0-0---------0-0---0---0-0-0---------0-0---0----------------|
e|-------------------3-----------------------3------------------|

E|-----------------------2---0---------------------3----------------|
B|-----------------------3---1---------------------0----------------|
G|-2-2---2---2-2---2---2-2---0---2-2----2-2--------0---2-2----2-2---|
D|-2-2---2---2-2---2---2-----2---2-2----2-2----2---0---2-2----2-2---|
A|-0-0---0---0-0---0---0-----3---0-0----0-0----2---2---0-0----0-0---|
e|-----3---------3---3---------------3------3--0---3-------3------3-|

Sorry, no leads cause I'm a lazy sack of crap.  Most of them are pretty simple.
Добавлено: 17.09.2015
Другие материалы по этой песне:
  • Аккорды и текст

Страница создана 10.03.2012
http://primanota.ru/cult/memphis-hip-shake-chords.htm
Привет, Гость.
Предлагаем пройти революционный курс по гитаре.
Подарок от PrimaNota.Ru, забирай!