PrimaNota.ru - самый крупный в мире бесплатный архив песенных текстов, аккордов, табулатур и нот


Cult - Sweet Salvation - текст песни, таба, видео

Регистрация Запомнить меня
Войти через:  Facebook Google Twitter Vk Yandex Mail.ru

Cult - Sweet Salvation - текст песни, таба, видео

Печатать
Просмотров: 185
************************************
THIS TAB: THE CULT - SWEET SALVATION
************************************

Intro:===============================================================================

E--2---2-2-2-3-3-3-3-2-2-2-2-3--------------3-------0-------3------------|
B--3---3-3-3-3-3-3-3-3-3-3-3-3------1-1-1-1-1-1-1-1-1-1-1-1-1-1-1--------|
G--2---2-2-2-2-2-2-2-2-2-2-2-2------0-0-0-0-0-0-0-0-0-0-0-0-0-0-0--------|
D--0---0-0-0-0-0-0-0-0-0-0-0-0------2-2-2-2-2-2-2-2-2-2-2-2-2-2-2--3½----|
A-------------------------------0-2-3-3-3-3-3-3-3-3-3-3-3-3-3-3-3--------|
E------------------------------------------------------------------------|

E--2---2-2-2-3-3-3-3-2-2-2-2-3--------------3-------0-------3/5-3-2--|
B--3---3-3-3-3-3-3-3-3-3-3-3-3------1-1-1-1-1-1-1-1-1-1-1-1-3/5-3-3--|
G--2---2-2-2-2-2-2-2-2-2-2-2-2------0-0-0-0-0-0-0-0-0-0-0-0----------|
D--0---0-0-0-0-0-0-0-0-0-0-0-0------2-2-2-2-2-2-2-2-2-2-2-2----------|
A-------------------------------0-2-3-3-3-3-3-3-3-3-3-3-3-3----------|
E--------------------------------------------------------------------|

singing lines:==============================================================

E--2---2-2-2--2-2-2--2-2-2---2---2-2-2----2-2-2----2-2-2-----3---3-3-3--3-3-3--3-3-3--|
B--3---3-3-3--3-3-3--3-3-3---3---3-3-2h3--3-3-2h3--3-3-2h3---3---3-3-3--3-3-3--3-3-3--|
G--2---2-2-2--2-2-2--2-2-2---4---4-4-4----4-4-4----4-4-4-----0---0-0-0--0-0-0--0-0-0--|
D--0---0-0-0--0-0-0--0-0-0---4---4-4-4----4-4-4----4-4-4-----0---0-0-0--0-0-0--0-0-0--|
A----------------------------2---2-2-2----2-2-2----2-2-2-----2---2-2-2--2-2-2--2-2-2--|
E------------------------------------------------------------3---3-3-3--3-3-3--3-3-3--|
  oh...

E-----------------------------------|
B--2---2-2-2h3--3-3-2--2-2-2h3-3-3--|
G--2---2-2-2----2-2-2--2-2-2---2-2--|
D--2---2-2-2----2-2-2--2-2-2---2-2--|
A--0---0-0-0----0-0-0--0-0-0---0-0--|
E-----------------------------------|

pre chorus================================================

E--2--2-2--2---2---2--3--3-3-3-----------------------------------|
B--3--3-3--3---3---3--3--3-3-3--2---2-2-2h3--3-3-2--2-2-2h3-3-3--|
G--4--4-4--4---4---4--0--0-0-0--2---2-2-2----2-2-2--2-2-2---2-2--|
D--4--4-4--4---4---4--0--0-0-0--2---2-2-2----2-2-2--2-2-2---2-2--|
A--2--2-2-(2)-(4)-(5)-2--2-2-2--0---0-0-0----0-0-0--0-0-0---0-0--|
E---------------------3--3-3-3-----------------------------------|
   uh..               she moves...

E--2--2-2--2---2---2--3--3-3-3---------------------------|
B--3--3-3--3---3---3--3--3-3-3--2-2-2-2-2-2-2-2-2-2-2-2--|
G--4--4-4--4---4---4--0--0-0-0--2-2-2-2-2-2-2-2-2-2-2-2--|
D--4--4-4--4---4---4--0--0-0-0--2-2-2-2-2-2-2-2-2-2-2-2--|
A--2--2-2-(2)-(4)-(5)-2--2-2-2--0-0-0-0-0-0-0-0-0-0-0-0--|
E---------------------3--3-3-3---------------------------|
                               pm = = = = = = = = = = =

chorus:==============================================================

E------------------------------------------------------------------|
B------------------------3-----------------------------------3-----|
G-----------2------------2--------4-----------------2--------2-----|
D--5--------2------------0--------4--------5--------2--------0-----|
A--5--------0----(0)-(2)----------2--------5--------0--------------|
E--3---------------------------------------3-----------------------|
   sweet salvation.....
E------------------------------------------------------------2-----|
B------------------------3-----------------------------------3-----|
G-----------2------------2--------4-----------------2--------2-----|
D--5--------2------------0--------4--------5--------2--------0-----|
A--5--------0----(0)-(2)----------2--------5--------0--------------|
E--3---------------------------------------3-----------------------|

after this chorus===================================

E--2---2-2-2-3-3-3-3-2-2-2-2-3--------------3-------0-------3/5-3-2--|
B--3---3-3-3-3-3-3-3-3-3-3-3-3------1-1-1-1-1-1-1-1-1-1-1-1-3/5-3-3--|
G--2---2-2-2-2-2-2-2-2-2-2-2-2------0-0-0-0-0-0-0-0-0-0-0-0----------|
D--0---0-0-0-0-0-0-0-0-0-0-0-0------2-2-2-2-2-2-2-2-2-2-2-2----------|
A-------------------------------0-2-3-3-3-3-3-3-3-3-3-3-3-3----------|
E--------------------------------------------------------------------|
================================================================================
repeats singing lines
repeats pre chorus
repeats chorus
solo
repeats chorus
Добавлено: 17.09.2015
Другие материалы по этой песне:
  • Аккорды и текст

Страница создана 18.04.2012
http://primanota.ru/cult/sweet-salvation-chords.htm
Привет, Гость.
Предлагаем пройти революционный курс по гитаре.
Подарок от PrimaNota.Ru, забирай!