PrimaNota.ru - самый крупный в мире бесплатный архив песенных текстов, аккордов, табулатур и нот


Cult - Nirvana - текст песни, таба, бас-таба, видео

Регистрация Запомнить меня
Войти через:  Facebook Google Twitter Vk Yandex Mail.ru

Cult - Nirvana - текст песни, таба, бас-таба, видео

Печатать
Просмотров: 177
Авторы музыки: Ian Astbury, Billy Duffy

Guitar is tuned normally
	e
	B
	G
	D
	A
	E

Legend:  / - slide up
         \ - slide down
	 X - strings muted with "pick" hand
         ~ - vibrato
         * - do not let string ring
         ) - bend ---> if a Q appears to the right of this, indicates a 1/4 bend.
                       Hence, 4)Q means a string om the 4th fret is 
                       bending by 1/4; 4)H means a string on the 4th fret is bending
                       by 1/2; 9)F means a Full bend on a string on the 9th fret.
	 ( - bring back -->bring the string back to original tone. For example,
			   if you see 4)H( this meansbend the string on the 4th fret by 1/2
			   then bring the string back to original tone.
	 h - hammer the string
	 p - pull the string


Play 2 times
 B               A               e               D
|-----0---0----------0---0-----------0---0----------0---0---------|
|-------0--------------0---------------0--------------0-----------|
|-4----------4/2-2-----------2/1-1-----------1/2-2----------2/4---|
|-----------------------------------------------------------------|
|-----------------------------------------------------------------|
|-----------------------------------------------------------------|
|								  |
|								  |
|0---------------0---------------0---------------0----------------|
|0---------------0---------------0---------------3----------------|
|4---------------2---------------1---------------2----------------|
|4---------------2---------------2---------------0----------------|
|2---------------0---------------2--------------------------------|
|-----------------------------------------------------------------|


 B               A               e               D
|-----------------------------------------------------------------|
|-----------------------------------------------------------------|
|4----/7--7~-7~-/2----/7--7~-7~-/1----/7--7~-7~-/2---/7--7~-7~----|
|-----------------------------------------------------------------|
|-----------------------------------------------------------------|
|-----------------------------------------------------------------|
|								  |
|								  |
|0---------------0---------------0---------------0----------------|
|0---------------0---------------0---------------3----------------|
|4---------------2---------------1---------------2----------------|
|4---------------2---------------2---------------0----------------|
|2---------------0---------------2--------------------------------|
|-----------------------------------------------------------------|


 B               A               e               D
|-----------------------------------------------------------------|
|-----------------------------------------------------------------|
|4-----/7--6--4--2-----/7--6--4--1-----/7--6--4--2---/7--6--4-----|
|-----------------------------------------------------------------|
|-----------------------------------------------------------------|
|-----------------------------------------------------------------|
|								  |
|								  |
|0---------------0---------------0---------------0----------------|
|0---------------0---------------0---------------3----------------|
|4---------------2---------------1---------------2----------------|
|4---------------2---------------2---------------0----------------|
|2---------------0---------------2--------------------------------|
|-----------------------------------------------------------------|


 B               A               e               D
|-----------------------------------------------------------------|
|--------------------------------------------9-9---7---7---7-7----|
|--------------------------------------------9-9---7---7---7-7----|
|9-X-X-X-X-X-X-9/7-X-X-X-X-X-7-7/9-X-X-X-X-X-9-9/7X7-X-7-X-7-7----|
|9-X-X-X-X-X-X-9/7-X-X-X-X-X-7-7/7-X-X-X-X-X-7-7/5X5-X-5-X-5-5----|
|7-X-X-X-X-X-X-7/5-X-X-X-X-X-5-5----------------------------------|
 "I Float...

 B               A               e               D
|-----------------------------------------------------------------|
|------------------------------------9-9-----9-9---7X7XX7XX7-7/9-9|
|------------------------------------9-9-----9-9---7X7XX7XX7-7/9-9|
|9-X-X-X-X-X-X-9/7-X-X-X-X-X-7-7/9-X-9-9-X-X-9-9/7X7X7XX7XX7-7/9-9|
|9-X-X-X-X-X-X-9/7-X-X-X-X-X-7-7/7-X-7-7-X-X-7-7/5X5X5XX5XX5-5/7-7|
|7-X-X-X-X-X-X-7/5-X-X-X-X-X-5-5----------------------------------|
 "Till I...

 B               A               e               D
|-------------------------------------------------------0---------|
|--------------------------------------9-----9-9------------0-----|
|--------------------------------------9-----9-9------7-------7---|
|9-X-X-X-X-X-X-9/7-X-X-X-X-X-7-7/9-X-X-9-X-X-9-9----7-------------|
|9-X-X-X-X-X-X-9/7-X-X-X-X-X-7-7/7-X-X-7-X-X-7-7--5---------------|
|7-X-X-X-X-X-X-7/5-X-X-X-X-X-5-5----------------------------------|
 "It Rained...

 B               A               e               D
|----------------------------------------3-2----------------------|
|----0---3-2-0-------0---3-2-0-------0-------0-------0---6-5-0----|
|-----------------------------------------------------------------|
|--------------------------------2---------------0----------------|
|2---------------0------------------------------------------------|
|-----------------------------------------------------------------|
|								  |
|								  |
|0---------------0---------------0---------------0----------------|
|0---------------0---------------5---------------3----------------|
|4---------------2---------------4---------------2----------------|
|4---------------2---------------2---------------0----------------|
|2---------------0---------------2--------------------------------|
|-----------------------------------------------------------------|
 "Love all...

Play 2 times
 B               A               e               D
|-----------------------------------------------------------------|
|-----------------------------------------------------------------|
|4-----------4/2-2-----------2/1-1-----------1/2-2----------2/4---|
|-----------------------------------------------------------------|
|-----------------------------------------------------------------|
|-----------------------------------------------------------------|
|								  |
|								  |
|0---0----0------0---0----0------0---0----0------0---0----0-------|
|0------0----0---0------0----0---0------0----0---3------0----0----|
|4---------------2---------------1---------------2----------------|
|4---------------2---------------2---------------0----------------|
|2---------------0---------------2--------------------------------|
|-----------------------------------------------------------------|
 "Eeeeeeeeeeeeevvrryyyyyyyyyyyyyydaaayyyy        Nirvana"

 B               A               e               D
|-----------------------------------------------------------------|
|-----------------------------------------------------------------|
|4--------/7-7--\2-2------/7-7--\1-1------/7-7--\2-2------/7-7----|
|-----------------------------------------------------------------|
|-----------------------------------------------------------------|
|-----------------------------------------------------------------|
|								  |
|								  |
|0---0----0------0---0----0------0---0----0------0---0----0-------|
|0------0----0---0------0----0---0------0----0---3------0----0----|
|4---------------2---------------1---------------2----------------|
|4---------------2---------------2---------------0----------------|
|2---------------0---------------2--------------------------------|
|-----------------------------------------------------------------|

 B               A               e               D
|-----------------------------------------------------------------|
|-----------------------------------------------------------------|
|4-----/7--6--4--2-----/7--6--4--1-----/7--6--4--2---/7--6--4-----|
|-----------------------------------------------------------------|
|-----------------------------------------------------------------|
|-----------------------------------------------------------------|
|								  |
|								  |
|0---0----0------0---0----0------0---0----0------0---0----0-------|
|0------0----0---0------0----0---0------0----0---3------0----0----|
|4---------------2---------------1---------------2----------------|
|4---------------2---------------2---------------0----------------|
|2---------------0---------------2--------------------------------|
|-----------------------------------------------------------------|

 B               A               e               D
|-----------------------------------------------------------------|
|--------------------------------------------9-9---7---7---7-7----|
|--------------------------------------------9-9---7---7---7-7----|
|9-X-X-X-X-X-X-9/7-X-X-X-X-X-7-7/9-X-X-X-X-X-9-9/7X7-X-7-X-7-7----|
|9-X-X-X-X-X-X-9/7-X-X-X-X-X-7-7/7-X-X-X-X-X-7-7/5X5-X-5-X-5-5----|
|7-X-X-X-X-X-X-7/5-X-X-X-X-X-5-5----------------------------------|
"I'm not looking for girls..."

 B               A               e               D
|-----------------------------------------------------------------|
|------------------------------------9-9-----9-9---7X7XX7XX7-7/9-9|
|------------------------------------9-9-----9-9---7X7XX7XX7-7/9-9|
|9-X-X-X-X-X-X-9/7-X-X-X-X-X-7-7/9-X-9-9-X-X-9-9/7X7X7XX7XX7-7/9-9|
|9-X-X-X-X-X-X-9/7-X-X-X-X-X-7-7/7-X-7-7-X-X-7-7/5X5X5XX5XX5-5/7-7|
|7-X-X-X-X-X-X-7/5-X-X-X-X-X-5-5----------------------------------|
"Or have to sit..."

 B               A               e               D
|-------------------------------------------------------0---------|
|--------------------------------------9-----9-9------------0-----|
|--------------------------------------9-----9-9------7-------7---|
|9-X-X-X-X-X-X-9/7-X-X-X-X-X-7-7/9-X-X-9-X-X-9-9----7-------------|
|9-X-X-X-X-X-X-9/7-X-X-X-X-X-7-7/7-X-X-7-X-X-7-7--5---------------|
|7-X-X-X-X-X-X-7/5-X-X-X-X-X-5-5----------------------------------|
"I don't think..."

 B               A               e               D
|----------------------------------------3-2----------------------|
|----0---3-2-0-------0---3-2-0-------0-------0-------0---6-5-0----|
|-----------------------------------------------------------------|
|--------------------------------2---------------0----------------|
|2---------------0------------------------------------------------|
|-----------------------------------------------------------------|
|								  |
|								  |
|0---------------0---------------0---------------0----------------|
|0---------------0---------------5---------------3----------------|
|4---------------2---------------4---------------2----------------|
|4---------------2---------------2---------------0----------------|
|2---------------0---------------2--------------------------------|
|-----------------------------------------------------------------|

Play 2 times
 B               A               e               D
|-----------------------------------------------------------------|
|-----------------------------------------------------------------|
|4-----------4/2-2-----------2/1-1-----------1/2-2----------2/4---|
|-----------------------------------------------------------------|
|-----------------------------------------------------------------|
|-----------------------------------------------------------------|
|								  |
|								  |
|0---0----0------0---0----0------0---0----0------0---0----0-------|
|0------0----0---0------0----0---0------0----0---3------0----0----|
|4---------------2---------------1---------------2----------------|
|4---------------2---------------2---------------0----------------|
|2---------------0---------------2--------------------------------|
|-----------------------------------------------------------------|
 "Eeeeeeeeeeeeevvrryyyyyyyyyyyyyydaaayyyy        Nirvana"

 B               A               e               D
|-----------------------------------------------------------------|
|-----------------------------------------------------------------|
|4---/7--7--7-\2-2---/7--7--7-\1-1---/7--7--7-\2-2---/7--7--7-----|
|-----------------------------------------------------------------|
|-----------------------------------------------------------------|
|-----------------------------------------------------------------|
|								  |
|								  |
|0---0----0------0---0----0------0---0----0------0---0----0-------|
|0------0----0---0------0----0---0------0----0---3------0----0----|
|4---------------2---------------1---------------2----------------|
|4---------------2---------------2---------------0----------------|
|2---------------0---------------2--------------------------------|
|-----------------------------------------------------------------|

 B               A               e               D
|-----------------------------------------------------------------|
|-----------------------------------------------------------------|
|4-----/7--6--4--2-----/7--6--4--1-----/7--6--4--2---/7--6--4-----|
|-----------------------------------------------------------------|
|-----------------------------------------------------------------|
|-----------------------------------------------------------------|
|								  |
|								  |
|0---0----0------0---0----0------0---0----0------0---0----0-------|
|0------0----0---0------0----0---0------0----0---3------0----0----|
|4---------------2---------------1---------------2----------------|
|4---------------2---------------2---------------0----------------|
|2---------------0---------------2--------------------------------|
|-----------------------------------------------------------------|

 B          F   G    D           B        F   G    D
|---------------------------------------------------------|
|4--4--4-------------7-7-7-7--/--4--4--------------7-7-7--|
|4--4--4-------------7-7-7-7--/--4--4--------------7-7-7--|
|4--4--4----4---5----7-7-7-7--/--4--4-----4---5----7-7-7--|
|2--2--2----4---5----5-5-5-5--/--2--2-----4---5----5-5-5--|
|-----------2---3-------------------------2---3-----------|
           |__________play 3 times______|

Play 2 times
 B               A               e               D
|-----------------------------------------------------------------|
|-----------------------------------------------------------------|
|4-----------4/2-2-----------2/1-1-----------1/2-2----------2/4---|
|-----------------------------------------------------------------|
|-----------------------------------------------------------------|
|-----------------------------------------------------------------|
|								  |
|								  |
|0---0----0------0---0----0------0---0----0------0---0----0-------|
|0------0----0---0------0----0---0------0----0---3------0----0----|
|4---------------2---------------1---------------2----------------|
|4---------------2---------------2---------------0----------------|
|2---------------0---------------2--------------------------------|
|-----------------------------------------------------------------|
 "Eeeeeeeeeeeeevvrryyyyyyyyyyyyyydaaayyyy        Nirvana"

 B               A               e               D
|-----------------------------------------------------------------|
|-----------------------------------------------------------------|
|4---/7--7--7-\2-2---/7--7--7-\1-1---/7--7--7-\2-2---/7--7--7-----|
|-----------------------------------------------------------------|
|-----------------------------------------------------------------|
|-----------------------------------------------------------------|
|								  |
|								  |
|0---0----0------0---0----0------0---0----0------0---0----0-------|
|0------0----0---0------0----0---0------0----0---3------0----0----|
|4---------------2---------------1---------------2----------------|
|4---------------2---------------2---------------0----------------|
|2---------------0---------------2--------------------------------|
|-----------------------------------------------------------------|

 B               A               e               D
|-----------------------------------------------------------------|
|-----------------------------------------------------------------|
|4-----/7--6--4--2-----/7--6--4--1-----/7--6--4--2---/7--6--4-----|
|-----------------------------------------------------------------|
|-----------------------------------------------------------------|
|-----------------------------------------------------------------|
|								  |
|								  |
|0---0----0------0---0----0------0---0----0------0---0----0-------|
|0------0----0---0------0----0---0------0----0---3------0----0----|
|4---------------2---------------1---------------2----------------|
|4---------------2---------------2---------------0----------------|
|2---------------0---------------2--------------------------------|
|-----------------------------------------------------------------|

*SOLO*
|---------------------------------------------------------|
|---------------------------------------------------------|
|---------------------------------------------------------|
|---------------------------------------------------------|
|---------------------------------------5X-5X-5h7---------|
|7X-7X-7X--7X7X-7X7X-7X-7X7X-7X7X-7X-7X-------------------|

|---------------------------------------------------------|
|---------------------------------------------------------|
|---------------------------------------------------------|
|---------------------------------------------------------|
|-------------------------------------5X-7X---------------|
|7X-7X7X-7X-7X-7X-7X-7X-7X-7X7X-7X7X--------5X-5X-5X-5X5X-|

|---------------------------------------------------------|
|---------------------------------------------------------|
|---------------------------------------------------------|
|---------------------------------------------------------|
|---------------------------------------5X-5X-5h7-7)H-----|
|7X7X-7X-7X-7X-7X-7X-7X-7X7X-7X7X-7X-7X-------------------|

|---------------------------------------------------------|
|---------------------------------------------------------|
|---------------------------------------------------------|
|---------------------------------------------------------|
|----------------------------------5X-7X------------------|
|7X-7X-7X-7X-7X-7X-7X-7X-7X7X-7X7X--------5~--------------|

|---------------------------------------------------------|
|---------------------------------------------------------|
|---------------------------------------------------------|
|---------------------------------------------------------|
|----------5----5-7-7)H-7)H----5-5-----7-7--7-7-----------|
|7X7X-7X7X---7X-------------7X-----5-5--------------------|
|							  |
|							  |
|---------------------------------------------------------|
|3-3--3-3--3X--------------------------5-5-5--5-5---------|
|4-4--4-4--4X--------------------------4-4-4--4-4---------|
|4-4--4-4--4X--------------------------2-2-2--2-2---------|
|2-2--2-2--2X--------------------------2-2-2--2-2---------|
|---------------------------------------------------------|

|---------------------------------------------------------|
|---------------------------------------------------------|
|---------------------------------------------------------|
|---------------------------------------------------------|
|---------------------------------5-7---------------------|
|7X7X-7X-7X-7X-7X-7X-7X-7X7X-7X7X-----5X-5X-5X------------|
|							  |
|							  |
|---------------------------------------------------------|
|3-3--3X-------------------------------3-3-3--------------|
|4-4--4X-------------------------------4-4-4--------------|
|4-4--4X-------------------------------4-4-4--------------|
|2-2--2X-------------------------------2-2-2--------------|
|---------------------------------------------------------|

|---------------------------------------------------------|
|---------------------------------------------------------|
|---------------------------------------------------------|
|---------------------------------------------------------|
|-----------------------------------------5-5-5h7-7)H-----|
|7X7X-7X7X-7X-7X-7X-7X-7X-7X7X-7X7X-7X-7X-----------------|
|							  |
|							  |
|---------------------------------------------------------|
|3-3--3-3--3X--------------------------5-5-5--5-5---------|
|4-4--4-4--4X--------------------------4-4-4--4-4---------|
|4-4--4-4--4X--------------------------2-2-2--2-2---------|
|2-2--2-2--2X--------------------------2-2-2--2-2---------|
|---------------------------------------------------------|

|---------------------------------------------------------|
|---------------------------------------------------------|
|---------------------------------------------------------|
|----------------------7-9-9-9-9-9-9-9-9-9-9--------------|
|--5-5-------5---5/7-9------------------------------------|
|7-----7-7-7---7------------------------------------------|
|							  |
|							  |
|---------------------------------------------------------|
|3-3--3X-------------------------------3-3-3--------------|
|4-4--4X-------------------------------4-4-4--------------|
|4-4--4X-------------------------------4-4-4--------------|
|2-2--2X-------------------------------2-2-2--------------|
|---------------------------------------------------------|

|---------------------------------------------------------|
|---------------------------------------------------------|
|--------------------------------------7-7-7h9-9)H--------|
|9-9-9-9-9-9-9-9-9-9-9-9-9-9-9-9-9-9-9--------------------|
|---------------------------------------------------------|
|---------------------------------------------------------|
|							  |
|							  |
|---------------------------------------------------------|
|3-3--3-3--3X--3-3-3--3-3-3X-3-3-3-3X--5-5-5--5-5-5-5-----|
|4-4--4-4--4X--4-4-4--4-4-4X-2-2-2-2X--4-4-4--4-4-4-4-----|
|4-4--4-4--4X--4-4-4--4-4-4X-2-2-2-2X--2-2-2--2-2-2-2-----|
|2-2--2-2--2X--2-2-2--2-2-2X-2-2-2-2X--2-2-2--2-2-2-2-----|
|---------------------------------------------------------|

|---------------------------------------------------------|
|---------------------------------------------------------|
|--------------------------------------7h9----------------|
|9-9-9-9-9-9-9-9-9-9-9-9-9-9-9-9-9-9-9-----7-7-7-7-7------|
|---------------------------------------------------------|
|---------------------------------------------------------|
|							  |
|							  |
|---------------------------------------------------------|
|3-3--3-3--3X--3-3-3--3-3-3X-3-3-3-3X--5-5-5--5-5-5-5-----|
|4-4--4-4--4X--4-4-4--4-4-4X-2-2-2-2X--4-4-4--4-4-4-4-----|
|4-4--4-4--4X--4-4-4--4-4-4X-2-2-2-2X--2-2-2--2-2-2-2-----|
|2-2--2-2--2X--2-2-2--2-2-2X-2-2-2-2X--2-2-2--2-2-2-2-----|
|---------------------------------------------------------|

|---------------------------------------------------------|
|---------------------------------------------------------|
|--------------------------------------7-7-7h9-9)H--------|
|9-9-9-9-9-9-9-9-9-9-9-9-9-9-9-9-9-9-9--------------------|
|---------------------------------------------------------|
|---------------------------------------------------------|
|							  |
|							  |
|---------------------------------------------------------|
|3-3--3-3--3X--3-3-3--3-3-3X-3-3-3-3X--5-5-5--5-5-5-5-----|
|4-4--4-4--4X--4-4-4--4-4-4X-2-2-2-2X--4-4-4--4-4-4-4-----|
|4-4--4-4--4X--4-4-4--4-4-4X-2-2-2-2X--2-2-2--2-2-2-2-----|
|2-2--2-2--2X--2-2-2--2-2-2X-2-2-2-2X--2-2-2--2-2-2-2-----|
|---------------------------------------------------------|

|---------------------------------------------------------|
|------------------------7/10-12-12-12-12-12-12-----------|
|--7-7---7-9)Q(9-9)H(9-7----------------------------------|
|9-----9--------------------------------------------------|
|---------------------------------------------------------|
|---------------------------------------------------------|
|							  |
|							  |
|---------------------------------------------------------|
|3-3--3-3--3X--3-3-3--3-3-3X-3-3-3-3X--5-5-5--5-5-5-5-----|
|4-4--4-4--4X--4-4-4--4-4-4X-2-2-2-2X--4-4-4--4-4-4-4-----|
|4-4--4-4--4X--4-4-4--4-4-4X-2-2-2-2X--2-2-2--2-2-2-2-----|
|2-2--2-2--2X--2-2-2--2-2-2X-2-2-2-2X--2-2-2--2-2-2-2-----|
|---------------------------------------------------------|

|------------------------------------10-10-10h12-12)H-----|
|12-12-12-12-12-12-12-12-12-12-12-12----------------------|
|---------------------------------------------------------|
|---------------------------------------------------------|
|---------------------------------------------------------|
|---------------------------------------------------------|
|							  |
|							  |
|---------------------------------------------------------|
|3-3--3-3--3X--3-3-3--3-3-3X-3-3-3-3X--5-5-5--5-5-5-5-----|
|4-4--4-4--4X--4-4-4--4-4-4X-2-2-2-2X--4-4-4--4-4-4-4-----|
|4-4--4-4--4X--4-4-4--4-4-4X-2-2-2-2X--2-2-2--2-2-2-2-----|
|2-2--2-2--2X--2-2-2--2-2-2X-2-2-2-2X--2-2-2--2-2-2-2-----|
|---------------------------------------------------------|

|------------------------------10h12----------------------|
|12-12-12-12-12-12-12-12-12-12-------10-10-10-10-10-10----|
|---------------------------------------------------------|
|---------------------------------------------------------|
|---------------------------------------------------------|
|---------------------------------------------------------|
|							  |
|							  |
|---------------------------------------------------------|
|3-3--3-3--3X--3-3-3--3-3-3X-3-3-3-3X--5-5-5--5-5-5-5-----|
|4-4--4-4--4X--4-4-4--4-4-4X-2-2-2-2X--4-4-4--4-4-4-4-----|
|4-4--4-4--4X--4-4-4--4-4-4X-2-2-2-2X--2-2-2--2-2-2-2-----|
|2-2--2-2--2X--2-2-2--2-2-2X-2-2-2-2X--2-2-2--2-2-2-2-----|
|---------------------------------------------------------|

|------------------------------------10-10-10h12-12)H-----|
|12-12-12-12-12-12-12-12-12-12-12-12----------------------|
|---------------------------------------------------------|
|---------------------------------------------------------|
|---------------------------------------------------------|
|---------------------------------------------------------|
|							  |
|							  |
|---------------------------------------------------------|
|3-3--3-3--3X--3-3-3--3-3-3X-3-3-3-3X--5-5-5--5-5-5-5-----|
|4-4--4-4--4X--4-4-4--4-4-4X-2-2-2-2X--4-4-4--4-4-4-4-----|
|4-4--4-4--4X--4-4-4--4-4-4X-2-2-2-2X--2-2-2--2-2-2-2-----|
|2-2--2-2--2X--2-2-2--2-2-2X-2-2-2-2X--2-2-2--2-2-2-2-----|
|---------------------------------------------------------|

|---10-10-------10X10X--10X10X----------------------------|
|12-------12-12-------12------12-10-----------------------|
|-----------------------------------11-9)H(9-7-11--\------|
|---------------------------------------------------------|
|---------------------------------------------------------|
|---------------------------------------------------------|
|							  |
|							  |
|---------------------------------------------------------|
|3-3--3-3--3X--3-3-3--3-3-3X-3-3-3-3X--5-5-5--5-5-5-5-----|
|4-4--4-4--4X--4-4-4--4-4-4X-2-2-2-2X--4-4-4--4-4-4-4-----|
|4-4--4-4--4X--4-4-4--4-4-4X-2-2-2-2X--2-2-2--2-2-2-2-----|
|2-2--2-2--2X--2-2-2--2-2-2X-2-2-2-2X--2-2-2--2-2-2-2-----|
|---------------------------------------------------------|

Play 2 times
 B               A               e               D
|-----------------------------------------------------------------|
|-----------------------------------------------------------------|
|4-----------4/2-2-----------2/1-1-----------1/2-2----------2/4---|
|-----------------------------------------------------------------|
|-----------------------------------------------------------------|
|-----------------------------------------------------------------|
|								  |
|								  |
|0---0----0------0---0----0------0---0----0------0---0----0-------|
|0------0----0---0------0----0---0------0----0---3------0----0----|
|4---------------2---------------1---------------2----------------|
|4---------------2---------------2---------------0----------------|
|2---------------0---------------2--------------------------------|
|-----------------------------------------------------------------|
 "Eeeeeeeeeeeeevvrryyyyyyyyyyyyyydaaayyyy        Nirvana"

 B               A               e               D
|-----------------------------------------------------------------|
|-----------------------------------------------------------------|
|4---/7--7--7-\2-2---/7--7--7-\1-1---/7--7--7-\2-2---/7--7--7-----|
|-----------------------------------------------------------------|
|-----------------------------------------------------------------|
|-----------------------------------------------------------------|
|								  |
|								  |
|0---0----0------0---0----0------0---0----0------0---0----0-------|
|0------0----0---0------0----0---0------0----0---3------0----0----|
|4---------------2---------------1---------------2----------------|
|4---------------2---------------2---------------0----------------|
|2---------------0---------------2--------------------------------|
|-----------------------------------------------------------------|

 B               A               e               D
|-----------------------------------------------------------------|
|-----------------------------------------------------------------|
|4-----/7--6--4--2-----/7--6--4--1-----/7--6--4--2---/7--6--4-----|
|-----------------------------------------------------------------|
|-----------------------------------------------------------------|
|-----------------------------------------------------------------|
|								  |
|								  |
|0---0----0------0---0----0------0---0----0------0---0----0-------|
|0------0----0---0------0----0---0------0----0---3------0----0----|
|4---------------2---------------1---------------2----------------|
|4---------------2---------------2---------------0----------------|
|2---------------0---------------2--------------------------------|
|-----------------------------------------------------------------|

Play 2 times
 B               A               e               D
|-----------------------------------------------------------------|
|-----------------------------------------------------------------|
|4-----------4/2-2-----------2/1-1-----------1/2-2----------2/4---|
|-----------------------------------------------------------------|
|-----------------------------------------------------------------|
|-----------------------------------------------------------------|
|								  |
|								  |
|0---0----0------0---0----0------0---0----0------0---0----0-------|
|0------0----0---0------0----0---0------0----0---3------0----0----|
|4---------------2---------------1---------------2----------------|
|4---------------2---------------2---------------0----------------|
|2---------------0---------------2--------------------------------|
|-----------------------------------------------------------------|
 "Eeeeeeeeeeeeevvrryyyyyyyyyyyyyydaaayyyy        Nirvana"

 B               A               e               D
|-----------------------------------------------------------------|
|-----------------------------------------------------------------|
|4---/7--7--7-\2-2---/7--7--7-\1-1---/7--7--7-\2-2---/7--7--7-----|
|-----------------------------------------------------------------|
|-----------------------------------------------------------------|
|-----------------------------------------------------------------|
|								  |
|								  |
|0---0----0------0---0----0------0---0----0------0---0----0-------|
|0------0----0---0------0----0---0------0----0---3------0----0----|
|4---------------2---------------1---------------2----------------|
|4---------------2---------------2---------------0----------------|
|2---------------0---------------2--------------------------------|
|-----------------------------------------------------------------|

 B               A               e               D     G     B
|-----------------------------------------------------------------|
|-----------------------------------------------------------------|
|4-----/7--6--4--2-----/7--6--4--1-----/7--6--4--2----------------|
|-----------------------------------------------------------------|
|-----------------------------------------------------------------|
|-----------------------------------------------------------------|
|								  |
|								  |
|0---0----0------0---0----0------0---0----0------0----------------|
|0------0----0---0------0----0---0------0----0---3-----------4----|
|4---------------2---------------1---------------2-----------4----|
|4---------------2---------------2---------------0-----------4----|
|2---------------0---------------2---------------------------2----|
|-----------------------------------------------------------------|

Добавлено: 17.07.2012
Другие материалы по этой песне:

Страница создана 26.03.2012
http://primanota.ru/cult/nirvana-chords.htm
Привет, Гость.
Предлагаем пройти революционный курс по гитаре.
Подарок от PrimaNota.Ru, забирай!