- самый крупный в мире бесплатный архив песенных текстов, аккордов, табулатур и нот

Crywank - Only Everyone Can Judge Me - таба, видео

Регистрация Запомнить меня
Войти через:  Facebook Google Twitter Vk Yandex

Crywank - Only Everyone Can Judge Me - таба, видео

Просмотров: 123
                   ONLY EVERYONE CAN JUDGE ME - Crywank
Tabbed by: skeleton-ghost


Support the artist at - most songs are free

1st part (Picky part):                                              
e|-----------|    |-----------|    |-----------|    |-----------|    
B|----8---8--|    |----3---3--|    |----1---1--|    |-----------|    
G|-----------|    |-----------|    |-----------|    |----4---4--|    
D|-----------|    |-----------|    |-----------|    |-----------|    
A|--7---7----|    |--2---2----|    |--0---0----|    |-----------|    
E|-----------| x4 |-----------| x4 |-----------| x4 |--3---3----| x4 

E|-----------------0--| x2 

2nd part (Strummy part):                                                                     
e|-----------------|    |---------|    |---------|    |------------|    |------------|    
G|-----------------|    |---------|    |---------|    |------------|    |------------|   
D|-----------------|    |--7-777--|    |--9-999--|    |-10-101010--|    |-11-111111--|
A|--777-7\10-1010--|    |--0-000--|    |--0-000--|    |--0--0-0-0--|    |--0--0-0-0--| 
E|--000-0-----0-0--| x4 |---------| x2 |---------| x2 |------------| x2 |------------| x2
    ddd u     d u          d udu          d udu          d  u d u          d  u d u   


Hive mind is scary I feel vulnerable and stupid 
Waiting for a new embarrassment to go and tear right through me 
A dependent fruitless animal, watch me brimming with shame. 

And this confidence I fake only makes matters worse. 
I am not a stallion, I am just perverse. 
Hopeless, and docile, and tamed. 

Another day I won't remember, another day I wished away. 
Tedious days punctuated by dismay, 
everyday feels the same. 

It's the routine, It's the regret. 
That makes me worse yet. 

Did I forget your name or make a joke and no-one laughed? 
Did I come across as stupid or did I cum too fast? 
This isn't a brave face, this is a mask. 

Now I remember it doesn't take much to make me feel small.
Добавлено: 04.12.2015
Другие материалы по этой песне:
  • Аккорды и текст

Страница создана 04.12.2015
Привет, Гость.
Предлагаем пройти революционный курс по гитаре.
Подарок от PrimaNota.Ru, забирай!