PrimaNota.ru - самый крупный в мире бесплатный архив песенных текстов, аккордов, табулатур и нот


Crywank - Im A Cliché - таба, видео

Регистрация Запомнить меня
Войти через:  Facebook Google Twitter Vk Yandex Mail.ru

Crywank - Im A Cliché - таба, видео

Печатать
Просмотров: 236
Уроки эстрадного вокала в Санкт-Петербурге
-------------------------------------------------------------------------------
                             SONG NAME - Band Name
-------------------------------------------------------------------------------
Tabbed by:Riskyrhysee
E-mail:Riskyrhysee"gmail.com

Tuning:Standard

This song is incredible and so easy to play because their are only 'three fuckin chords'.
It used to be on 'tommorow is nearly yesterday and everyday is stupid' but now it's only on the tour demos,
https://crywank.bandcamp.com/track/im-a-clich
Some chords are labeled with accents ^ (this basically means play these chords slightly harder)
Thankyou for checking this out! stay sad and stay rad!

e|---------------------------------------------------------------------------|
B|---------------------------------------------------------------------------|
G|-0-0-0-0-0-0-0-0-0-0-0-0-0-0-0-0-------------------------------------------|
D|-4-4-4-4-4-4-4-4-4-4-4-4-4-4-4-4-------------------------------------------|
A|-5-5-5-5-5-5-5-5-5-5-5-5-5-5-5-5-------------------------------------------|
E|-----^-------^-------^-------^---------------------------------------------|

These two parts are for the verses

e|---------------------------------------------------------------------------|
B|---------------------------------------------------------------------------|
G|---------------------------------------------------------------------------|
D|-5-5-5-5-5-5-5-5-0-0-0-0-0-0-0-0-------------------------------------------|
A|-4-4-4-4-4-4-4-4-2-2-2-2-2-2-2-2-------------------------------------------|
E|-5-5-5-5-5-5-5-5-3-3-3-3-3-3-3-3-------------------------------------------|
       ^       ^       ^       ^   
Chorus
e|---------------------------------------------------------------------------|
B|---------------------------------------------------------------------------|
G|-0-0-0-0-0-0-0-0-0-0-0-0-0-0-0-0-------------------------------------------|
D|-4-4-4-4-4-4-4-4-4-4-4-4-4-4-4-4-------------------------------------------|
A|-5-5-5-5-5-5-5-5-5-5-5-5-5-5-5-5-------------------------------------------|
E|---------------------------------------------------------------------------|
 'Im a cliché i'm a boring cliché

e|---------------------------------------------------------------------------|
B|---------------------------------------------------------------------------|
G|---------------------------------------------------------------------------|
D|-5-5-5-5-5-5-5-5-0-0-0-0-0-0-0-0-------------------------------------------|
A|-4-4-4-4-4-4-4-4-2-2-2-2-2-2-2-2-------------------------------------------|
E|-5-5-5-5-5-5-5-5-3-3-3-3-3-3-3-3-------------------------------------------|
  I'm a cliché i'm a stupid cliché

e|---------------------------------------------------------------------------|
B|---------------------------------------------------------------------------|
G|-0-0-0-0-0-0-0-0-0-0-0-0-0-0-0-0-------------------------------------------|
D|-4-4-4-4-4-4-4-4-4-4-4-4-4-4-4-4-------------------------------------------|
A|-5-5-5-5-5-5-5-5-5-5-5-5-5-5-5-5-------------------------------------------|
E|---------------------------------------------------------------------------|
 Im a cliché i'm a boring cliché

e|---------------------------------------------------------------------------|
B|---------------------------------------------------------------------------|
G|---------------------------------------------------------------------------|
D|-5-5-5-5-5-5-5-5-0-0-0-0-0-0-0-0-------------------------------------------|
A|-4-4-4-4-4-4-4-4-2-2-2-2-2-2-2-2-------------------------------------------|
E|-5-5-5-5-5-5-5-5-3-3-3-3-3-3-3-3-------------------------------------------|
             I'm not special'

Lyrics

Haven't you heard this one before?
Some person being sad over three fucking chords
I can't believe this, it's like I didn't try
Repeating synonyms of sadness that have been used too many times

I'm a cliché, I'm a boring cliché
I'm a cliché, I'm a stupid cliché
I'm a cliché, I'm a boring cliché
I'm not special

Recycle the subjects until everything sounds the same
Every heartbreak was shitty, everyone's hometown is lame
Act like my emotions are worth writing songs about
It won't make you any better, putting words over sounds

I'm a cliché, I'm a boring cliché
I'm a cliché, I'm a stupid cliché
I'm a cliché, I'm a boring cliché
I'm not special

************************************

| /   slide up
| \   slide down
| h   hammer-on
| p   pull-off
| ~   vibrato
| +   harmonic
| x   Mute note
| b   Bend
| pb  Pre-bend
| br  Bend release
| pbr Pre-bend release
| brb Bend release bend

************************************
Добавлено: 04.12.2015
Другие материалы по этой песне:
  • Аккорды и текст

Страница создана 04.12.2015
http://primanota.ru/crywank/im-a-cliche-chords.htm
Привет, Гость.
Предлагаем пройти революционный курс по гитаре.
Подарок от PrimaNota.Ru, забирай!