PrimaNota.ru - самый крупный в мире бесплатный архив песенных текстов, аккордов, табулатур и нот


Crywank - Love - таба, видео

Регистрация Запомнить меня
Войти через:  Facebook Google Twitter Vk Yandex Mail.ru

Crywank - Love - таба, видео

Печатать
Просмотров: 67
-------------------------------------------------------------------------------
                             Love - Crywank 
-------------------------------------------------------------------------------
Tabbed by:RiskyRhysee
E-mail:Rhyshellen@gmail.com

Tuning:Standard 

This song is called love and it's a love song. If you wanna support Crywank check out his bandcamp
https://crywank.bandcamp.com/

e|---------------------|---------------------|-------------------------------|
B|-----------0---------|-----------0---------|----------0--------------------|
G|----0----0------0----|----0----0------0----|---0----0------0---------------|
D|------12-----12------|------12-----12------|-----10-----10-----------------|
A|-10------------------|---------------------|-------------------------------|
E|---------------------|-10------------------|-8-----------------------------|
  Verse Riff 1 x4         Verse Riff 2 x2         Verse Riff 3 x2

*Note there is a slight pause after the first note of each riff. 

e|------------------|--------------------------------------------------------|
B|---------0--------|----------0---------------------------------------------|
G|---0---0-----0----|----5---5-----5-----------------------------------------|
D|-----5-----5------|------0-----0-------------------------------------------|
A|------------------|--3-----------------------------------------------------|
E|-3----------------|--------------------------------------------------------|
  Chorus Riff 1           Chorus Riff 2

This is the chorus, it's played 4 times altogether.


e|---------------------------------------------------------------------------|
B|-------------0-------------------0-------------------0---------------------|
G|----12----12------12----12----12------12----12----12------0----12----12----|
D|-------12------12----------12------12----------12------12---------12-------|
A|-10------------------10------------------10-----------------10-------------|
E|---------------------------------------------------------------------------|
  Chorus ends on this before playing the verse Riffs again.


e|-0------0-------0----------------------------------------------------------|
B|-0------0-------0----------------------------------------------------------|
G|-0------0-------0----------------------------------------------------------|
D|-12-----12------10---------------------------------------------------------|
A|-10-----X-------X----------------------------------------------------------|
E|--------10------8----------------------------------------------------------|
   This is the "loooooooove" part, they are strummed in a pattern if you
   listen to the song you can make it out.


e|-0------0------------------------------------------------------------------|
B|-0------0------------------------------------------------------------------|
G|-0------5------------------------------------------------------------------|
D|-5------5------------------------------------------------------------------|
A|-5------3------------------------------------------------------------------|
E|-3------X------------------------------------------------------------------|
   This part is played 4 times, again listen to the song
   to learn the strumming pattern.


e|-0-------------------------------------------------------------------------|
B|-0-------------------------------------------------------------------------|
G|-12------------------------------------------------------------------------|
D|-12------------------------------------------------------------------------|
A|-10------------------------------------------------------------------------|
E|-X-------------------------------------------------------------------------|
   Finish on this chord.


e|---5---5-------------------------------------------------------------------|
B|-8---8---7---7------7---7--0-----0-----0-----------------------------------|
G|-----------9---9--7---7------2/5---2/5-------------------------------------|
D|---------------------------------------------------------------------------|
A|---------------------------------------------------------------------------|
E|---------------------------------------------------------------------------|
   This is the lead guitar, it's played on the verses.


e|-----0---------------------------------------------------------------------|
B|-5/7---0-----0-------------------------------------------------------------|
G|---------2/5---0-----------------------------------------------------------|
D|---------------------------------------------------------------------------|
A|---------------------------------------------------------------------------|
E|---------------------------------------------------------------------------|
   This is the lead guitar for the chorus and outro, guess what? Its rad.

Lyrics:

When we first met we only wanted to have sex,
and now we just watch DVD boxsets,
wasting time together so we're not alone.

When i say i love you i really mean don't leave me,
as long as you stay i don't care if you believe me.
Lets deal with this companionship to make things easy.

Don't really know you, only what you've shown me
just let me own you and you can own me
this is nothing more than a love affair with myself
stick around for the sake of my mental health.

We can pretend like we're happy, pretend like we're good
and others can envy our boundless love,
we will laugh because we tricked them,
we will laugh because we suck.

Endorphins are fading, the rush has died down
but convenience and loneliness keeps both of us around
we will turn off our brains when the other makes a sound.

World see us a pair, i don't really care
but you're my status, so i will keep you there
we'd run away for someone more attractive in our lives
but in the meantime we'll decorate each others sides.

Love is fucking stupid and i hate you.

************************************

| /   slide up
| \   slide down
| h   hammer-on
| p   pull-off
| ~   vibrato
| +   harmonic
| x   Mute note
| b   Bend
| pb  Pre-bend
| br  Bend release
| pbr Pre-bend release
| brb Bend release bend

************************************
Добавлено: 16.05.2016
Другие материалы по этой песне:
  • Аккорды и текст

Страница создана 16.05.2016
http://primanota.ru/crywank/love-chords.htm
Привет, Гость.
Предлагаем пройти революционный курс по гитаре.
Подарок от PrimaNota.Ru, забирай!