PrimaNota.ru - самый крупный в мире бесплатный архив песенных текстов, аккордов, табулатур и нот


Cradle Of Filth - Thirteen Autumns And A Widow - аккорды и текст, таба, видео

Регистрация Запомнить меня
Войти через:  Facebook Google Twitter Vk Yandex Mail.ru

Cradle Of Filth - Thirteen Autumns And A Widow - аккорды и текст, таба, видео

Печатать
Просмотров: 138
Авторы музыки: Stuart Anstis, Robin Eaglestone, Dani Filth, Nicholas Barker, Gian Pyres, Les Smith
Авторы текста: Dani Filth
Thirteen Autumns And A Widow
Cradle Of Filth
Legend:
h       hammer-on
p       pull-off
PM -- palm mute
"       tremolo picking
/       slide up
       slide down
3/4     time signature
( )     tie note
 
In this song, there's 2 guitars, I indicate when each of them
plays different part.

Tune one whole step  (6:D 5:G 4:C 3:F 2:A 1:D)

 Intro Riff                         ____________
 3/4                      1.
-----------------------------------------------------
-----------------------------------------------------
o-5------------(5)----------(5)----------5-----------
o-5------------(5)----------(5)----------5-------3---
--3------------(3)----------(3)----------3-------3---
-------------------------------------------------1---
________________________________________________________   ____________
                              2.3.
------------------------------------------------------------------
------------------------------------------------------------------
------------------rest---------rest---------rest----o-5-----------
-4--------------------------------------------------o-5-------4---
-4----------------------------------------------------3-------4---
-2------------------------------------------------------------2---
________________________________________________________
                             
------------------------------------------------------------------
------------------------------------------------------------------
------------------rest---------rest---------rest----o-5-----------
-3--------------------------------------------------o-5-----------
-3----------------------------------------------------3-----------
-1----------------------------------------------------------------
                          Riff A
-----------------------------------------------------------------
-----------------------------------------------------------------
-(5)----------(5)----------5-------------------------------------
-(5)----------(5)----------5------------4------------3-----------
-(3)----------(3)----------3------------4------------3-----------
----------------------------------------2------------1-----------

-----------------------------------------------------------------
-----------------------------------------------------------------
-----------------------------------------------------------------
-4------------3------------8---88888888-888888888888-888888888888
-4------------3------------8---88888888-888888888888-888888888888
-2------------1------------6---66666666-666666666666-666666666666
   play 4 times
   (end Riff A)
-------------------------------------------------------------------
-------------------------------------------------------------------
-------------oo----------------------------------------------------
-888888888888oo-444444444444-444444444444-444444444444-444444444444
-888888888888---444444444444-444444444444-444444444444-444444444444
-666666666666---222222222222-222222222222-222222222222-222222222222

-----------------------------------------------------
-----------------------------------------------------
-555555555555-555555555555-555555555555-555555555555o
-555555555555-555555555555-555555555555-555555555555o
-333333333333-333333333333-333333333333-333333333333-
-----------------------------------------------------

------------------------------------------------------
------------------------------------------------------
o-----------------------------------------------------
o-3----------------rest---------rest---------rest-----
--3---------------------------------------------------
--1---------------------------------------------------

-----------------------------------------------------
-----------------------------------------------------
-555555555555-555555555555-555555555555-555555555555o
-555555555555-555555555555-555555555555-555555555555o
-333333333333-333333333333-333333333333-333333333333-
-----------------------------------------------------
play Riff A 4 times
 Riff C  (Gtr 1)
-------------------------------------------------------
-------------------------------------------------------
--h---h---h----h---h---h----h---h---h----h----h----h---
-0-5-0-5-0-5--0-7-0-8-0-8--0-8-0-8-0-8--0-10-0-12-0-12-
-------------------------------------------------------
-------------------------------------------------------
                               
Riff C (Gtr 2)                         
-------------------------------------------------------
-------------------------------------------------------
--h---h---h----h---h---h----h---h---h----h----h----h---
-0-5-0-5-0-5--0-7-0-8-0-8--0-5-0-5-0-5--0-7--0-8--0-8--
-------------------------------------------------------
-------------------------------------------------------
                         (end Riff C)
----------------------------------------------------
----------------------------------------------------
-----77777777-777755555555-----77777777-777755555555
-5-------------------------5------------------------
----------------------------------------------------
----------------------------------------------------
                            
                       (end Riff C) 
----------------------------------------------------
----------------------------------------------------
----------------------------------------------------
-----88888888-888877777777-----88888888-888877777777
-5-------------------------5------------------------
----------------------------------------------------
 Riff D
-----------------------------------------------------------------
----------------------------------------Gtr-1--------------------
-7"---------------5"--------------------5"-----------------------
----------------------8"---7"----------------------------5"--3"--
----------------------------------------0"-----------------------
----------------------------------------Gtr-2--------------------
                               (end Riff D)
-----------------------------------------------------------------
-----------------------------------------------------------------
-----------------------------------------------------------------
-2"-----------777777777777-7---8---7----777777777777-777777777777
--------------555555555555-5---6---5----555555555555-555555555555
-----------------------------------------------------------------
 Riff E (Gtr 1)
------------------------------------------------------
------------------------------------------------------
------------------------------------------------------
-----7----------------------555555555555--555555555555
-8---5---8----777777777777--333333333333--333333333333
-6-------6----555555555555----------------------------
play Riff D
 (Gtr 2) /w Riff E
------------------------------------------------------
--------------------------------h---------------------
-----7--------------p----------7-9--------9~----------
-8-------8----7---10-7------10------------------------
------------------------------------------------------
------------------------------------------------------

 12/8  (Slower)
----------------------------------------------------------------------------
----------------------------------------------------------------------------
-7------------------------(7)-----------------------------------------------
-7------------------------(7)----------------------7------------------------
-5------------------------(5)----------------------7------------------------
---------------------------------------------------5------------------------
                                          
----------------------------------------------------------------------------
-----------------------------------------------------p-h-----------------h--
-10----------9------------------------10--9--------10-9-10--------------9-10
--------------------------7-------------------7-----------------------------
----------------------------------------------------------------------------
----------------------------------------------------------------------------

---------------------------------------------------------------------------
---------------------------------------------------------------------------
--------------------------5------------------------(5)---------------------
-(7)----------------------5------------------------(5)---------------------
-(7)----------------------3------------------------(3)---------------------
-(5)-----------------------------------------------------------------------
                                         
                                         
---------------------------------------------------------------------------
---------------------------p-h-----------------h---------------------------
-9-----------10--9--------9-7-9---------------7-9--7-----------9---7-------
---------------------7-------------------------------------------------7---
---------------------------------------------------------------------------
---------------------------------------------------------------------------
                           (faster) 3/4
                           Riff F  (Gtr 1)
-----------------------------------------------------------------------------
-----------------------------------------------------------------------------
--------------------------------------------------o--------------------------
-5------------------------3-----------2-----------o--------------------------
-5------------------------3-----------2-------------555555555555-555555555555
-3------------------------1-----------0--------------------------------------
                                             
                                   Riff F (Gtr 2)             
-----------------------------------------------------------------------------
---p-h--------------------------------@--------------------------------------
-10-9-10------------------10~---------9~----------o-10"----------9"----------
--------------------------------------------------o--------------------------
-----------------------------------------------------------------------------
-----------------------------------------------------------------------------
                      semi
                       harmonic
-----------------------------------------------------------------
-----------------------------------------------------------------
-----------------------------------------------------------------
-----------------------------------------------------------------
-888888888888-777777775555---------------------------777777777777
---------------------------555555555555-555555555555-------------
                                          
                                          
-----------------------------------------------------------------
-----------------------------------------------------------------
--------------10"--9"------10-9-10"-----10"-----9-10-9"----------
-7"--------------------7"----------------------------------------
-----------------------------------------------------------------
-----------------------------------------------------------------

-----------------------------------------------------------------
-----------------------------------------------------------------
-----------------------------------------------------------------
-----------------------------------------------------------------
-888888888888-333333333333-333333333333/888888888888-777777775555
-----------------------------------------------------------------
                                          
                                          
-----------------------------------------------------------------
-----------------------------------------------------------------
-10"-9"-------9-7-9"-------9"------7-9--7"-----------9"--7"------
---------7"--------------------------------------------------7"--
-----------------------------------------------------------------
-----------------------------------------------------------------
                          (end Riff F)
-----------------------------------------------------
-----------------------------------------------------
----------------------------------------------------o 1st time,
---------------------------@------------@-----------o  let ring
---------------------------888888888888-7777777777777
-333333333333-333333333333---------------------------
                             
                             
                         (end Riff F)
-----------------------------------------------------
-----------------------------------------------------
-10-9-10"-----10"----------10"----------9"----------o
----------------------------------------------------o
-----------------------------------------------------
-----------------------------------------------------
play Riff C and C 4 times
play Riff D
play Riff E
play Riff D
 (Gtr 2) /w Riff E
------------------------------------------------------
--------------------------------h---------------------
-----7"-------------p----------7-9"-------9"----------
-8"------8"---7"--10-7"-----10------------------------
------------------------------------------------------
------------------------------------------------------
play Riff F and F 1.75 times
then:
----------------------------------------------------
----------------------------------------------------
----------------------------------------------------
--------------------------------p-p-----------------
---------------------------8---8-7-5----8---7---5---
-333333333333-333333333333--------------------------
                            
                            
                            
----------------------------------------------------
----------------------------------------------------
-10-9-10"-----10"----------10"----------------------
----------------------------------------------------
----------------------------------------8slide
----------------------------------------------------
 Riff G
 12/8
----------------------------------------------------------------------------
----------------------------------------------------------------------------
-7-----7-7-7-7-----7-7-7---------------------------------------------------
-7-----7-7-7-7-----7-7-7--7-----7-7-7-7-----7-7-7--5-----5-5-5-5-----5-5-5-
--5-----5-5-5-5-----5-5-5--7-----7-7-7-7-----7-7-7--5-----5-5-5-5-----5-5-5-
---------------------------5-----5-5-5-5-----5-5-5--3-----3-3-3-3-----3-3-3-
         PM---      PM---        PM---      PM---        PM---      PM---

               play 4 times
               (end Riff G)  Both Gtrs
------------------------------------------------------------------------------
------------------------------------------------------------------------------
-3-3-3-3-----5-5-5-5-----oo-------------------------o-(GTR-1)-----------------
-3-3-3-3-----5-5-5-5-----oo-------------------------o-4p2-2-5p2-2-4p2-2-5p4p2-
-1-1-1-1-----3-3-3-3---@------------------------------------------------------
-----------------------0----2p0-0-3p0-0-2p0-0-3p0-0---2p0-0-3p0-0-2p0-0-3p2p0-
  PM---      PM---                    (GTR 2)
          play 4th
           time only

  (GTR 1)
----------------------------------------------------------------------------
----------------------------------------------------------------------------
-------Drum-fill---------o--------------------------------------------------
-------------------------o-4p2-2-5p2-2-4p2-2-5p2-2--4p2-2-5p2-2-4p2-2-5p2---
--------------------------------------------------------------------------3-
----------------------------------------------------------------------------
                                          
 (GTR 2)                                           
----------------------------------------------------------------------------
----------------------------------------------------------------------------
-------Drum-fill---------o--p-----------p------------p-----------p----------
-------------------------o-5-2-222222225-2-22222222-5-2-222222225-2-22222222
----------------------------------------------------------------------------
-2--------------------------------------------------------------------------

---------------------------------------------------
---------------------------------------------------
--------------------------------------------------o
-4-----5-----4-----5---4--7p5p4-5p4p2-4p2p0-2~----o
---3-3---3-3---3-3---------------------------------
---------------------------------------------------
                                  
                                  
---------------------------------------------------
---------------------------------------------------
--------------------------------------------------o
-5-----------5------------7p5p4-5p4p2-4p2p0-5p4p2-o
---3333333333--3333333333--------------------------
---------------------------------------------------

-----------------------------------------------------------
-----------------------------------------------------------
o----------------------------------------------------------
o-9p7--7-10p7-7-9p7--7-10p7-7--9p7-7-10p7-7-9p7-7-10p7-7---
-----------------------------------------------------------
-----------------------------------------------------------
                                 
                                 
-----------------------------------------------------------
-----------------------------------------------------------
o-11p9-9-12p9-9-11p9-9-12p9-9--11p9-9-12p9-9-11p9-9-12p9-9-
o----------------------------------------------------------
-----------------------------------------------------------
-----------------------------------------------------------

-----------------------------------------------------------------
-----------------------------------------------------------------
----------------------------------------------------------------o
-9p7--7-10p7-7-9p7--7-10p7-7--10p9p7---9p8p6--------------------o
-----------------------------------------------11p10p8--10p9p7---
-----------------------------------------------------------------
                                       
                                       
-----------------------------------------------------------------
-11p9-9-12p9-9-11p9-9-12p9-9--13p12p10-12p11p9-------------------
-----------------------------------------------13p12p10-12p11p9-o
----------------------------------------------------------------o
-----------------------------------------------------------------
-----------------------------------------------------------------

---------------------------------------------------------------------------
---------------------------------------------------------------------------
---------------------------------------------------------Drum-fill---------
---------------------------------------------------------------------------
---------------------------------------------------------------------------
-2p0-0-3p0-0-2p0-0-3p0-0--2p0-0-3p0-0-2p0-0-3p2p0--2-----------------------
play Riff F 4 times
back to 3/4
 (Gtr 1) w/ Riff E  (Gtr 2)
------------------------------------------------------------------
------------------------------------------------------------------
-10-----------9-------------------------10---9--------10ph910-----
---------------------------7---------------------7----------------
------------------------------------------------------------------
------------------------------------------------------------------

------------------------------------------------------------------
------------------------------------------------------------------
(10)-----9h10p9------------10---9--------9p7h9-------(9)------7h9-
------------------------------------7-----------------------------
------------------------------------------------------------------
------------------------------------------------------------------

------------------------------------------------------------------
------------------------------------------------------------------
p7------------9---7--------10h9p10-----(10)-----------10----------
----------------------7-------------------------------------------
------------------------------------------------------------------
------------------------------------------------------------------

-----------------------------------
----------------play-Riff-E-&-E---
-9---------------------------------
-----------------------------------
-----------------------------------
-----------------------------------
 free time
-----------------
-----------------
-----------------
-5---------------
-5---------------
-3---------------

(Bass & Keyboard)
 12/8 (very slow)
---------------------------------------------------------------------------
---------------------------------------------------------------------------
-(Both-Gtrs)---------------------------------------------------------------
-5-----------7------------8-----------7------------8-----------7-----------
---------------------------------------------------------------------------
---------------------------------------------------------------------------

---------------------------------------------------------------------------
--------------------------Gtr-1--------------------------------------------
--------------------------3-----------5------------7-----------5-----------
-5-----------4------------5-----------7------------8-----------7-----------
--------------------------Gtr-2--------------------------------------------
---------------------------------------------------------------------------

---------------------------------------------------Gtr-2-------------------
---------------------------------------------------8-----------10----------
-7-----------5------------3-----------2------------3-----------5-----------
-8-----------7------------5-----------4------------Gtr-1-------------------
---------------------------------------------------------------------------
---------------------------------------------------------------------------

---------------------------------------------------------------------------
-11----------10-----------11----------10-----------8-----------7-----------
-7-----------5------------7-----------5------------3-----------2-----------
---------------------------------------------------------------------------
---------------------------------------------------------------------------
---------------------------------------------------------------------------
                        play 4 times
----------------------------------------------------
----------------------------------------------------
o--------------------------8-----------7-----------o
o--------------------------8-----------7-----------o
---------------------------6-----------5------------
--3-----------5-----6-------------------------------
                    slow down on 4th time
 end with:
-----------------
-----------------
-----------------
-5---------------
-5---------------
-3---------------
Добавлено: 09.01.2014
Другие материалы по этой песне:

Страница создана 11.04.2012
http://primanota.ru/cradle-of-filth/thirteen-autumns-and-a-widow-chords.htm
Привет, Гость.
Предлагаем пройти революционный курс по гитаре.
Подарок от PrimaNota.Ru, забирай!