PrimaNota.ru - самый крупный в мире бесплатный архив песенных текстов, аккордов, табулатур и нот


Cradle Of Filth - Foetus Of A New Day Kicking - текст песни, таба, видео

Регистрация Запомнить меня
Войти через:  Facebook Google Twitter Vk Yandex Mail.ru

Cradle Of Filth - Foetus Of A New Day Kicking - текст песни, таба, видео

Печатать
Просмотров: 343
Уроки эстрадного вокала в Санкт-Петербурге
                             Cradle Of Filth:

                     The Foetus Of A New Day Kicking

                  From the fucking deadly album Thornography

              Tabbed by: Cormac Lennon............THATS ME!!! :D

Email/Msn: muttertree@hotmail.com
FOR ANYONE WHO WANTS TO TALK ABOUT CRADLE OR METAL IN GENERAL!!!


I only tabbed the Rhythm......its more fun to play in this song!!!I learned this song by 
be nice! Im pretty chuffed with it.....just dont go in front of Paul Allender and go 
YEAH!! MMM!!" You know?!

Tuning: Drop D, two steps down.....the same tuning you use when your playing Sonne by Rammstein!!! :)

p=Palm mute
/= Slide


INTRO
e-------------------------------|
B-------------------------------|
G-------------------------------|
D-2--5--5/4-7---9-7-10-10-3-5---|           PLAY THIS TWICE!!!
A-2--3--3/2-7---9-7-10-10-3-5---|      With German efficiancy!!!
d-2---------7---9 7-10-10-3-5---|

INTRO- Build Up ( ALSO THE CHORUS!!!)
e----------------------------------------------------|
B----------------------------------------------------|
G----------------------------------------------------|
D-2--2--245--5--5/4-7---------3--3--3-------------0--|
A-2--2--223333333/2-7--7--7---3--3--3---5--5--5---0--|
d-2222222-----------77777777--33333333--5555555---0--|
   pp pp             pp pp p   pp pp p   pp pp p

e------------------------------------------------------------------|
B------------------------------------------------------------------|
G------------------------------------------------------------------|
D-2--2--245--5--5/4-7---------3--3--3--------------3-----121212/10-|
A-2--2--223333333/2-7--7--7---3--3--3---5--5--5----3-----121212/10-|
d-2222222-----------77777777--33333333--55555555---333---121212/10-|
   pp pp             pp pp p   pp pp p   pp pp p    pp

VERSE
e----------------------------------------------|
B----------------------------------------------|
G----------------------------------------------|
D-587-----5857----587--------------------------|          BASS FILLS IN GAPS!!!
A-365-----3635----365---------0----------------|
d--------------------------1-3-4-3-1-----------|


e----------------------------------------------|
B----------------------------------------------|
G----------------------------------------------|  TIMES THREE!!!
D-587-------5857---------587-------------------|
A-365-------3635---------365------------0------|
d----00-0000----00-0000-----00-0000--1-3-4-3-1-|

BACK TO CHORUS
e----------------------------------------------------|
B----------------------------------------------------|
G----------------------------------------------------|
D-2--2--2-5--5--5/4-7---------3--3--3--------------0-|
A-2--2--2-3333333/2-7--7--7---3--3--3---5--5--5----0-|
d-22222222----------77777777--33333333--5555555----0-|


e------------------------------------------------------------------|
B------------------------------------------------------------------|
G------------------------------------------------------------------|
D-2--2--2-5--5--5/4-7---------3--3--3--------------3-----121212/10-|
A-2--2--2-3333333/2-7--7--7---3--3--3---5--5--5----3-----121212/10-|
d-22222222----------77777777--33333333--55555555---333---121212/10-|
   pp pp p           pp pp p   pp pp p   pp pp p    pp
BACK TO VERSE!!!
THE FOETUS!! OF A NEW DAY KICKING!!! :P


e----------------------------------------------|
B----------------------------------------------|
G----------------------------------------------|
D-587-------5857---------587-------------------|
A-365-------3635---------365------------0------|  Yeah.....again
d----00-0000----00-0000-----00-0000--1-3-4-3-1-|

e-------------------------------------------------|
B-------------------------------------------------|
G-------------------------------------------------|
D-587-----5857----587-----------------------------|             nipples
A-365-----3635----365---------0-------------------|
d--------------------------1-3-4-3-1--------------|

Then Play another Chorus YADDA YADDA YADDA Then Harmony breakdown.....Im too lazy to do 
the second guitar does but this is how I do it!!!

Harmony Breakdown
e--------------------------------------------------------------------|
B--------------------------------------------------------------------|
G--------------------------------------------------------------------|
D--------------------------------------------------------------------|
A-7-10-9-10--9-10-9--7-10-9-5--5-10-9--7-10-9-12-12-10-9---10-9---12-|
d--------------------------------------------------------10-----12---|

Harmony Breakdown (continued! FUCKING RAN OUT OF SPACE!!)
A10h12p-9---|
d--------12-|

BREAKDOWN
"On a night....like this"
e---------------------------------|
B---------------------------------|
G---------------------------------|
D-2-----345-----------------------| TIMES FOUR........Or SOMETHING
A-2-----345------------------33---|
d-2-----345--55/75-4-----/7-6--54-|
        ppp
After That You play the harmony again...Then one more chorus and you have then played 
the rhythm for The Foetus Of A New Day Kicking.....well at least my version of it!!
Pat yourself on the back and make yourself a nice pie or something :)
Добавлено: 13.04.2012
Другие материалы по этой песне:

Страница создана 03.03.2012
http://primanota.ru/cradle-of-filth/foetus-of-a-new-day-kicking-chords.htm
Привет, Гость.
Предлагаем пройти революционный курс по гитаре.
Подарок от PrimaNota.Ru, забирай!