PrimaNota.ru - самый крупный в мире бесплатный архив песенных текстов, аккордов, табулатур и нот


Cradle Of Filth - Under Huntress Moon - текст песни, таба, бас-таба, видео

Регистрация Запомнить меня
Войти через:  Facebook Google Twitter Vk Yandex Mail.ru

Cradle Of Filth - Under Huntress Moon - текст песни, таба, бас-таба, видео

Печатать
Просмотров: 191
Уроки эстрадного вокала в Санкт-Петербурге
DGCFAD                     Under Huntres Moon
D||--------------------------------|---------------------------------|
A||--------------------------------|---------------------------------|
F||--------------------------------|---------------------------------|
C||--7-7-7-7-7-7-12-12-12-12-12-12-|--10-10-10-10-10-10-9-9-9-9-10-9-|
G||--0-0-0-0-0-0--0--0--0--0--0--0-|---0--0--0--0--0--0-0-0-0-0--0-0-|
D||--------------------------------|---------------------------------|

                     
                                   PM              PM PM      PM    PM       
  S S S S S S  S  S  S  S  S  S    S               S  S  S  S S  E  S  E  S  
--------------------------------|-------------------------------------------|
--------------------------------|-------------------------------------------|
--------------------------------|-------------------------------------------|
--7-7-7-7-7-7-12-12-12-12-12-12-|-------------------------------------------|
--0-0-0-0-0-0--0--0--0--0--0--0-|------------------------2h-3----7-----8--5-|
--------------------------------|--1---------------1--1-------0--5--0--6--3-|


  S S S S S S  S  S  S  S  S  S     S  S  S  S  S  S S S S S  S S  
--------------------------------|---------------------------------|
--------------------------------|---------------------------------|
--------------------------------|---------------------------------|
--7-7-7-7-7-7-12-12-12-12-12-12-|--10-10-10-10-10-10-9-9-9-9-10-9-|
--0-0-0-0-0-0--0--0--0--0--0--0-|---0--0--0--0--0--0-0-0-0-0--0-0-|
--------------------------------|---------------------------------|


                                   PM PM PM      PM    PM       
  S S S S S S  S  S  S  S  S  S    S  S  S  S  S S  E  S  E  S  
--------------------------------|------------------------------|
--------------------------------|------------------------------|
--------------------------------|------------------------------|
--7-7-7-7-7-7-12-12-12-12-12-12-|------------------------------|
--0-0-0-0-0-0--0--0--0--0--0--0-|-----------2h-3----7-----8--5-|
--------------------------------|--1--1--1-------0--5--0--6--3-|


   S  S  S  S  S  S  S  S  S  S  S  S     S  S  S  S  S  S  S  S  S  S  S  S  
--------------------------------------|--------------------------------------|
--------------------------------------|--------------------------------------|
--------------------------------------|--------------------------------------|
--10-10-10-10-10-10-15-15-15-15-15-15-|--14-14-14-14-14-14-12-12-12-12-14-12-|
---0--0--0--0--0--0--0--0--0--0--0--0-|---0--0--0--0--0--0--0--0--0--0--0--0-|
--------------------------------------|--------------------------------------|


                                         PM PM PM      PM    PM       
   S  S  S  S  S  S  S  S  S  S  S  S    S  S  S  S  S S  E  S  E  S  
--------------------------------------|------------------------------|
--------------------------------------|------------------------------|
--------------------------------------|------------------------------|
--10-10-10-10-10-10-15-15-15-15-15-15-|------------------------------|
---0--0--0--0--0--0--0--0--0--0--0--0-|-----------2h-3----7-----8--5-|
--------------------------------------|--1--1--1-------0--5--0--6--3-|


   S  S  S  S  S  S  S  S  S  S  S  S     S  S  S  S  S  S  S  S  S  S  S  S  
--------------------------------------|--------------------------------------|
--------------------------------------|--------------------------------------|
--------------------------------------|--------------------------------------|
--10-10-10-10-10-10-15-15-15-15-15-15-|--14-14-14-14-14-14-12-12-12-12-14-12-|
---0--0--0--0--0--0--0--0--0--0--0--0-|---0--0--0--0--0--0--0--0--0--0--0--0-|
--------------------------------------|--------------------------------------|


                                         PM PM PM      PM    PM       
   S  S  S  S  S  S  S  S  S  S  S  S    S  S  S  S  S S  E  S  E  S  
--------------------------------------|------------------------------|
--------------------------------------|------------------------------|
--------------------------------------|------------------------------|
--10-10-10-10-10-10-15-15-15-15-15-15-|------------------------------|
---0--0--0--0--0--0--0--0--0--0--0--0-|-----------2h-3----7-----8--5-|
--------------------------------------|--1--1--1-------0--5--0--6--3-|


  S S S E  S S S S E  S    S S S S S S  S S S  S S S    S S S E  S S S S E  S  
------------------------|----------------------------|------------------------|
------------------------|----------------------------|------------------------|
------------------------|----------------------------|------------------------|
------------------------|----------------------------|------------------------|
--8-7-5-5--L-8-7-5-5--L-|--8-7-5-8-7-5-10-8-7-10-8-7-|--8-7-5-5--L-8-7-5-5--L-|
--6-5-3-3--L-6-5-3-3--L-|--6-5-3-6-5-3--8-6-5--8-6-5-|--6-5-3-3--L-6-5-3-3--L-|


   T  T  T  T  T  T T T T T T T T T T T T T  E   S  
---------------------------------------------------|
---------------------------------------------------|
---------------------------------------------------|
---------------------------------------------------|
--10-10-10-10-10-10-7-7-7-7-7-7-8-8-8-8-8-8-12\--L-|
---8--8--8--8--8--8-5-5-5-5-5-5-6-6-6-6-6-6-10\--L-|


    PM PM         PM PM            PM PM                    
  S S  S  S  E  S S  S  S  E     S S  S  S  E  S S S S S S  
------------------------------|----------------------------|
------------------------------|----------------------------|
------------------------------|----------------------------|
------------------------------|----------------------------|
--4-------4s-5--4-------4s-5--|--4-------4s-5--8-8-8-5-7-5-|
--2-2--2--2s-3--2-2--2--2s-3--|--2-2--2--2s-3--6-6-6-3-5-3-|


    PM PM         PM PM            PM PM                    
  S S  S  S  E  S S  S  S  E     S S  S  S  E  S S S S S S  
------------------------------|----------------------------|
------------------------------|----------------------------|
------------------------------|----------------------------|
------------------------------|----------------------------|
--4-------4s-5--4-------4s-5--|--4-------4s-5--8-8-8-5-7-5-|
--2-2--2--2s-3--2-2--2--2s-3--|--2-2--2--2s-3--6-6-6-3-5-3-|


    PM PM         PM PM            PM PM                    
  S S  S  S  E  S S  S  S  E     S S  S  S  E  S S S S S S  
------------------------------|----------------------------|
------------------------------|----------------------------|
------------------------------|----------------------------|
------------------------------|----------------------------|
--4-------4s-5--4-------4s-5--|--4-------4s-5--8-8-8-5-7-5-|
--2-2--2--2s-3--2-2--2--2s-3--|--2-2--2--2s-3--6-6-6-3-5-3-|


    PM PM         PM PM            PM PM                    
  S S  S  S  E  S S  S  S  E     S S  S  S  E  S S S S S S  
------------------------------|----------------------------|
------------------------------|----------------------------|
------------------------------|----------------------------|
------------------------------|----------------------------|
--4-------4s-5--4-------4s-5--|--4-------4s-5--8-8-8-5-7-5-|
--2-2--2--2s-3--2-2--2--2s-3--|--2-2--2--2s-3--6-6-6-3-5-3-|


  S S S S S S  S  S  S  S  S  S     S  S  S  S  S  S S S S S  S S  
--------------------------------|---------------------------------|
--------------------------------|---------------------------------|
--------------------------------|---------------------------------|
--7-7-7-7-7-7-12-12-12-12-12-12-|--10-10-10-10-10-10-9-9-9-9-10-9-|
--0-0-0-0-0-0--0--0--0--0--0--0-|---0--0--0--0--0--0-0-0-0-0--0-0-|
--------------------------------|---------------------------------|


                                   PM PM PM      PM    PM       
  S S S S S S  S  S  S  S  S  S    S  S  S  S  S S  E  S  E  S  
--------------------------------|------------------------------|
--------------------------------|------------------------------|
--------------------------------|------------------------------|
--7-7-7-7-7-7-12-12-12-12-12-12-|------------------------------|
--0-0-0-0-0-0--0--0--0--0--0--0-|-----------2h-3----7-----8--5-|
--------------------------------|--1--1--1-------0--5--0--6--3-|


  S S S S S S  S  S  S  S  S  S     S  S  S  S  S  S S S S S  S S  
--------------------------------|---------------------------------|
--------------------------------|---------------------------------|
--------------------------------|---------------------------------|
--7-7-7-7-7-7-12-12-12-12-12-12-|--10-10-10-10-10-10-9-9-9-9-10-9-|
--0-0-0-0-0-0--0--0--0--0--0--0-|---0--0--0--0--0--0-0-0-0-0--0-0-|
--------------------------------|---------------------------------|


                                   PM PM PM      PM    PM       
  S S S S S S  S  S  S  S  S  S    S  S  S  S  S S  E  S  E  S  
--------------------------------|------------------------------|
--------------------------------|------------------------------|
--------------------------------|------------------------------|
--7-7-7-7-7-7-12-12-12-12-12-12-|------------------------------|
--0-0-0-0-0-0--0--0--0--0--0--0-|-----------2h-3----7-----8--5-|
--------------------------------|--1--1--1-------0--5--0--6--3-|


   S  S  S  S  S  S  S  S  S  S  S  S     S  S  S  S  S  S  S  S  S  S  S  S  
--------------------------------------|--------------------------------------|
--------------------------------------|--------------------------------------|
--------------------------------------|--------------------------------------|
--10-10-10-10-10-10-15-15-15-15-15-15-|--14-14-14-14-14-14-12-12-12-12-14-12-|
---0--0--0--0--0--0--0--0--0--0--0--0-|---0--0--0--0--0--0--0--0--0--0--0--0-|
--------------------------------------|--------------------------------------|


                                         PM PM PM      PM    PM       
   S  S  S  S  S  S  S  S  S  S  S  S    S  S  S  S  S S  E  S  E  S  
--------------------------------------|------------------------------|
--------------------------------------|------------------------------|
--------------------------------------|------------------------------|
--10-10-10-10-10-10-15-15-15-15-15-15-|------------------------------|
---0--0--0--0--0--0--0--0--0--0--0--0-|-----------2h-3----7-----8--5-|
--------------------------------------|--1--1--1-------0--5--0--6--3-|


   S  S  S  S  S  S  S  S  S  S  S  S     S  S  S  S  S  S  S  S  S  S  S  S  
--------------------------------------|--------------------------------------|
--------------------------------------|--------------------------------------|
--------------------------------------|--------------------------------------|
--10-10-10-10-10-10-15-15-15-15-15-15-|--14-14-14-14-14-14-12-12-12-12-14-12-|
---0--0--0--0--0--0--0--0--0--0--0--0-|---0--0--0--0--0--0--0--0--0--0--0--0-|
--------------------------------------|--------------------------------------|


                                         PM PM PM      PM    PM       
   S  S  S  S  S  S  S  S  S  S  S  S    S  S  S  S  S S  E  S  E  S  
--------------------------------------|------------------------------|
--------------------------------------|------------------------------|
--------------------------------------|------------------------------|
--10-10-10-10-10-10-15-15-15-15-15-15-|------------------------------|
---0--0--0--0--0--0--0--0--0--0--0--0-|-----------2h-3----7-----8--5-|
--------------------------------------|--1--1--1-------0--5--0--6--3-|


  S S S E  S S S S E  S    S S S S S S  S S S  S S S    S S S E  S S S S E  S  
------------------------|----------------------------|------------------------|
------------------------|----------------------------|------------------------|
------------------------|----------------------------|------------------------|
------------------------|----------------------------|------------------------|
--8-7-5-5--L-8-7-5-5--L-|--8-7-5-8-7-5-10-8-7-10-8-7-|--8-7-5-5--L-8-7-5-5--L-|
--6-5-3-3--L-6-5-3-3--L-|--6-5-3-6-5-3--8-6-5--8-6-5-|--6-5-3-3--L-6-5-3-3--L-|


   T  T  T  T  T  T T T T T T T T T T T T T  E   S  
---------------------------------------------------|
---------------------------------------------------|
---------------------------------------------------|
---------------------------------------------------|
--10-10-10-10-10-10-7-7-7-7-7-7-8-8-8-8-8-8-12\--L-|
---8--8--8--8--8--8-5-5-5-5-5-5-6-6-6-6-6-6-10\--L-|


    PM PM         PM PM            PM PM                    
  S S  S  S  E  S S  S  S  E     S S  S  S  E  S S S S S S  
------------------------------|----------------------------|
------------------------------|----------------------------|
------------------------------|----------------------------|
------------------------------|----------------------------|
--4-------4s-5--4-------4s-5--|--4-------4s-5--8-8-8-5-7-5-|
--2-2--2--2s-3--2-2--2--2s-3--|--2-2--2--2s-3--6-6-6-3-5-3-|


    PM PM         PM PM            PM PM                    
  S S  S  S  E  S S  S  S  E     S S  S  S  E  S S S S S S  
------------------------------|----------------------------|
------------------------------|----------------------------|
------------------------------|----------------------------|
------------------------------|----------------------------|
--4-------4s-5--4-------4s-5--|--4-------4s-5--8-8-8-5-7-5-|
--2-2--2--2s-3--2-2--2--2s-3--|--2-2--2--2s-3--6-6-6-3-5-3-|


    PM PM         PM PM            PM PM                    
  S S  S  S  E  S S  S  S  E     S S  S  S  E  S S S S S S  
------------------------------|----------------------------|
------------------------------|----------------------------|
------------------------------|----------------------------|
------------------------------|----------------------------|
--4-------4s-5--4-------4s-5--|--4-------4s-5--8-8-8-5-7-5-|
--2-2--2--2s-3--2-2--2--2s-3--|--2-2--2--2s-3--6-6-6-3-5-3-|


    PM PM         PM PM            PM PM                    
  S S  S  S  E  S S  S  S  E     S S  S  S  E  S S S S S S  
------------------------------|----------------------------|
------------------------------|----------------------------|
------------------------------|----------------------------|
------------------------------|----------------------------|
--4-------4s-5--4-------4s-5--|--4-------4s-5--8-8-8-5-7-5-|
--2-2--2--2s-3--2-2--2--2s-3--|--2-2--2--2s-3--6-6-6-3-5-3-|


  H.           E  E     H        E  E  E  E     H.           Q     
---------------------|-----------------------|--------------------|
---------------------|-----------------------|--------------------|
---------------------|-----------------------|--------------------|
--5------------3--5--|--6--------5--6--5--3--|--2------------3----|
--5------------3--5--|--6--------5--6--5--3--|--2------------3----|
--3------------1--3--|--4--------3--4--3--1--|--0------------1----|


  H        E  E  E  E     H.           E  E     H        E  E  E  E   
-----------------------|---------------------|-----------------------|
-----------------------|---------------------|-----------------------|
-----------------------|---------------------|-----------------------|
--2--------3--5--3--6--|--5------------3--5--|--6--------5--6--5--3--|
--2--------3--5--3--6--|--5------------3--5--|--6--------5--6--5--3--|
--0--------1--3--1--4--|--3------------1--3--|--4--------3--4--3--1--|


  H.           Q       H        E  E  E  E   
--------------------|-----------------------|
--------------------|-----------------------|
--------------------|-----------------------|
--2------------3----|--2--------3--5--3--6--|
--2------------3----|--2--------3--5--3--6--|
--0------------1----|--0--------1--3--1--4--|


  |-3-| |-3-| |-3-| |-3-| |-3-| |-3-| |-3-| |-3-|  
  S S S S S S S S S S S S S S S S S S S S S S S S  
--------------------------------------------------|
--------------------------------------------------|
--------------------------------------------------|
--7-7-7-7-7-7-7-7-7-7-7-7-7-7-7-7-7-7-5-5-5-7-7-7-|
--5-5-5-5-5-5-5-5-5-5-5-5-5-5-5-5-5-5-3-3-3-5-5-5-|
--------------------------------------------------|


  |-3-| |-3-| |-3-| |-3-| |-3-| |-3-| |-3-| |-3-|  
  S S S S S S S S S S S S S S S S S S S S S S S S  
--------------------------------------------------|
--------------------------------------------------|
--------------------------------------------------|
--8-8-8-8-8-8-8-8-8-8-8-8-7-7-7-8-8-8-7-7-7-5-5-5-|
--6-6-6-6-6-6-6-6-6-6-6-6-5-5-5-6-6-6-5-5-5-3-3-3-|
--------------------------------------------------|


  |-3-| |-3-| |-3-| |-3-| |-3-| |-3-| |-3-| |-3-|  
  S S S S S S S S S S S S S S S S S S S S S S S S  
--------------------------------------------------|
--------------------------------------------------|
--------------------------------------------------|
--4-4-4-4-4-4-4-4-4-4-4-4-4-4-4-4-4-4-5-5-5-5-5-5-|
--2-2-2-2-2-2-2-2-2-2-2-2-2-2-2-2-2-2-3-3-3-3-3-3-|
--------------------------------------------------|


  |-3-| |-3-| |-3-| |-3-|              
  S S S S S S S S S S S S E  E  E  E   
--------------------------------------|
--------------------------------------|
--------------------------------------|
--4-4-4-4-4-4-4-4-4-4-4-4-5--7--5--8--|
--2-2-2-2-2-2-2-2-2-2-2-2-3--5--3--6--|
--------------------------------------|


  |-3-| |-3-| |-3-| |-3-| |-3-| |-3-| |-3-| |-3-|  
  S S S S S S S S S S S S S S S S S S S S S S S S  
--------------------------------------------------|
--------------------------------------------------|
--------------------------------------------------|
--7-7-7-7-7-7-7-7-7-7-7-7-7-7-7-7-7-7-5-5-5-7-7-7-|
--5-5-5-5-5-5-5-5-5-5-5-5-5-5-5-5-5-5-3-3-3-5-5-5-|
--------------------------------------------------|


  |-3-| |-3-| |-3-| |-3-| |-3-| |-3-| |-3-| |-3-|  
  S S S S S S S S S S S S S S S S S S S S S S S S  
--------------------------------------------------|
--------------------------------------------------|
--------------------------------------------------|
--8-8-8-8-8-8-8-8-8-8-8-8-7-7-7-8-8-8-7-7-7-5-5-5-|
--6-6-6-6-6-6-6-6-6-6-6-6-5-5-5-6-6-6-5-5-5-3-3-3-|
--------------------------------------------------|


  |-3-| |-3-| |-3-| |-3-| |-3-| |-3-| |-3-| |-3-|  
  S S S S S S S S S S S S S S S S S S S S S S S S  
--------------------------------------------------|
--------------------------------------------------|
--------------------------------------------------|
--4-4-4-4-4-4-4-4-4-4-4-4-4-4-4-4-4-4-5-5-5-5-5-5-|
--2-2-2-2-2-2-2-2-2-2-2-2-2-2-2-2-2-2-3-3-3-3-3-3-|
--------------------------------------------------|


  |-3-| |-3-| |-3-| |-3-|              
  S S S S S S S S S S S S E  E  E  E   
--------------------------------------|
--------------------------------------|
--------------------------------------|
--4-4-4-4-4-4-4-4-4-4-4-4-5--7--5--8--|
--2-2-2-2-2-2-2-2-2-2-2-2-3--5--3--6--|
--------------------------------------|


  |-3-| |-3-| |-3-| |-3-| |-3-| |-3-| |-3-| |-3-|  
  S S S S S S S S S S S S S S S S S S S S S S S S  
--------------------------------------------------|
--------------------------------------------------|
--------------2-2-2-3-3-3-------3-3-3-2-2-2-------|
--------3-3-3-------------------------------3-3-3-|
--5-5-5-------------------3-3-3-------------------|
--------------------------------------------------|


  |-3-| |-3-| |-3-| |-3-| |-3-| |-3-|            
  S S S S S S S S S S S S S S S S S S S  S S  S  
------------------------------------------------|
------------------------------------------------|
--------3-3-3-2-2-2-3-3-3-----------------------|
--1-1-1-----------------------------------------|
--------------------------3-3-3-3-3-3-3h-6-3h-6-|
------------------------------------------------|


  |-3-| |-3-| |-3-| |-3-| |-3-| |-3-| |-3-| |-3-|  
  S S S S S S S S S S S S S S S S S S S S S S S S  
--------------------------------------------------|
--------------------------------------------------|
--------------2-2-2-3-3-3-------3-3-3-2-2-2-------|
--------3-3-3-------------------------------3-3-3-|
--5-5-5-------------------3-3-3-------------------|
--------------------------------------------------|


  |-3-| |-3-| |-3-| |-3-| |-3-| |-3-|            
  S S S S S S S S S S S S S S S S S S S  S S  S  
------------------------------------------------|
------------------------------------------------|
--------3-3-3-2-2-2-3-3-3-----------------------|
--1-1-1-----------------------------------------|
--------------------------3-3-3-3-3-3-3h-6-3h-6-|
------------------------------------------------|


  |-3-| |-3-| |-3-| |-3-| |-3-| |-3-| |-3-| |-3-|  
  S S S S S S S S S S S S S S S S S S S S S S S S  
--------------------------------------------------|
--------------------------------------------------|
--------------2-2-2-3-3-3-------3-3-3-2-2-2-------|
--------3-3-3-------------------------------3-3-3-|
--5-5-5-------------------3-3-3-------------------|
--------------------------------------------------|


  |-3-| |-3-| |-3-| |-3-| |-3-| |-3-|            
  S S S S S S S S S S S S S S S S S S S  S S  S  
------------------------------------------------|
------------------------------------------------|
--------3-3-3-2-2-2-3-3-3-----------------------|
--1-1-1-----------------------------------------|
--------------------------3-3-3-3-3-3-3h-6-3h-6-|
------------------------------------------------|


  |-3-| |-3-| |-3-| |-3-| |-3-| |-3-| |-3-| |-3-|  
  S S S S S S S S S S S S S S S S S S S S S S S S  
--------------------------------------------------|
--------------------------------------------------|
--------------2-2-2-3-3-3-------3-3-3-2-2-2-------|
--------3-3-3-------------------------------3-3-3-|
--5-5-5-------------------3-3-3-------------------|
--------------------------------------------------|


  |-3-| |-3-| |-3-| |-3-| |-3-| |-3-|            
  S S S S S S S S S S S S S S S S S S S  S S  S  
------------------------------------------------|
------------------------------------------------|
--------3-3-3-2-2-2-3-3-3-----------------------|
--1-1-1-----------------------------------------|
--------------------------3-3-3-3-3-3-3h-6-3h-6-|
------------------------------------------------|


  |-3-| |-3-| |-3-| |-3-| |-3-| |-3-| |-3-| |-3-|  
  S S S S S S S S S S S S S S S S S S S S S S S S  
--------------------------------------------------|
--------------------------------------------------|
--------------------------------------------------|
--7-7-7-7-7-7-7-7-7-7-7-7-7-7-7-7-7-7-5-5-5-7-7-7-|
--5-5-5-5-5-5-5-5-5-5-5-5-5-5-5-5-5-5-3-3-3-5-5-5-|
--------------------------------------------------|


  |-3-| |-3-| |-3-| |-3-| |-3-| |-3-| |-3-| |-3-|  
  S S S S S S S S S S S S S S S S S S S S S S S S  
--------------------------------------------------|
--------------------------------------------------|
--------------------------------------------------|
--8-8-8-8-8-8-8-8-8-8-8-8-7-7-7-8-8-8-7-7-7-5-5-5-|
--6-6-6-6-6-6-6-6-6-6-6-6-5-5-5-6-6-6-5-5-5-3-3-3-|
--------------------------------------------------|


  |-3-| |-3-| |-3-| |-3-| |-3-| |-3-| |-3-| |-3-|  
  S S S S S S S S S S S S S S S S S S S S S S S S  
--------------------------------------------------|
--------------------------------------------------|
--------------------------------------------------|
--4-4-4-4-4-4-4-4-4-4-4-4-4-4-4-4-4-4-5-5-5-5-5-5-|
--2-2-2-2-2-2-2-2-2-2-2-2-2-2-2-2-2-2-3-3-3-3-3-3-|
--------------------------------------------------|


  |-3-| |-3-| |-3-| |-3-|              
  S S S S S S S S S S S S E  E  E  E   
--------------------------------------|
--------------------------------------|
--------------------------------------|
--4-4-4-4-4-4-4-4-4-4-4-4-5--7--5--8--|
--2-2-2-2-2-2-2-2-2-2-2-2-3--5--3--6--|
--------------------------------------|


  |-3-| |-3-| |-3-| |-3-| |-3-| |-3-| |-3-| |-3-|  
  S S S S S S S S S S S S S S S S S S S S S S S S  
--------------------------------------------------|
--------------------------------------------------|
--------------------------------------------------|
--7-7-7-7-7-7-7-7-7-7-7-7-7-7-7-7-7-7-5-5-5-7-7-7-|
--5-5-5-5-5-5-5-5-5-5-5-5-5-5-5-5-5-5-3-3-3-5-5-5-|
--------------------------------------------------|


  |-3-| |-3-| |-3-| |-3-| |-3-| |-3-| |-3-| |-3-|  
  S S S S S S S S S S S S S S S S S S S S S S S S  
--------------------------------------------------|
--------------------------------------------------|
--------------------------------------------------|
--8-8-8-8-8-8-8-8-8-8-8-8-7-7-7-8-8-8-7-7-7-5-5-5-|
--6-6-6-6-6-6-6-6-6-6-6-6-5-5-5-6-6-6-5-5-5-3-3-3-|
--------------------------------------------------|


  |-3-| |-3-| |-3-| |-3-| |-3-| |-3-| |-3-| |-3-|  
  S S S S S S S S S S S S S S S S S S S S S S S S  
--------------------------------------------------|
--------------------------------------------------|
--------------------------------------------------|
--4-4-4-4-4-4-4-4-4-4-4-4-4-4-4-4-4-4-5-5-5-5-5-5-|
--2-2-2-2-2-2-2-2-2-2-2-2-2-2-2-2-2-2-3-3-3-3-3-3-|
--------------------------------------------------|


  |-3-| |-3-| |-3-| |-3-|                         |-3-| |-3-| |-3-| |-3-|  
  S S S S S S S S S S S S E  E  E  E     H        S S S S S S S S S S S S  
--------------------------------------|-----------------------------------|
--------------------------------------|-----------------------------------|
--------------------------------------|-----------------------------------|
--4-4-4-4-4-4-4-4-4-4-4-4-5--7--5--8--|-----------7-7-7-7-7-7-7-7-7-7-7-7-|
--2-2-2-2-2-2-2-2-2-2-2-2-3--5--3--6--|-----------5-5-5-5-5-5-5-5-5-5-5-5-|
--------------------------------------|-----------------------------------|


           |-3-| |-3-|  |--3--|  |--3--|             |-3-| |-3-|       
  H        S S S S S S  S  S  S  S  S  S    H        S S S S S S Q     
-----------------------------------------|----------------------------|
-----------------------------------------|----------------------------|
-----------------------------------------|----------------------------|
-----------7-7-7-7-7-7-10-10-10-10-10-10-|-----------7-7-7-7-7-7-5----|
-----------5-5-5-5-5-5--8--8--8--8--8--8-|-----------5-5-5-5-5-5-5----|
-----------------------------------------|-----------------------3----|


                                    |-3-| |-3-| |-3-| |-3-|  
  Q    Q    E  E  E  E     H        S S S S S S S S S S S S  
------------------------|-----------------------------------|
------------------------|-----------------------------------|
------------------------|-----------------------------------|
--6----5----4--6--5--4--|-----------7-7-7-7-7-7-7-7-7-7-7-7-|
--6----5----4--6--5--4--|-----------5-5-5-5-5-5-5-5-5-5-5-5-|
--4----3----2--4--3--2--|-----------------------------------|


           |-3-| |-3-|  |--3--|  |--3--|             |-3-| |-3-|       
  H        S S S S S S  S  S  S  S  S  S    H        S S S S S S Q     
-----------------------------------------|----------------------------|
-----------------------------------------|----------------------------|
-----------------------------------------|----------------------------|
-----------7-7-7-7-7-7-10-10-10-10-10-10-|-----------7-7-7-7-7-7-5----|
-----------5-5-5-5-5-5--8--8--8--8--8--8-|-----------5-5-5-5-5-5-5----|
-----------------------------------------|-----------------------3----|


       |--3--|       |--3--|     ---                                         
  Q    E  E  E  Q    E  E  E           W                   W                 
------------------------------|-----|-------------------|-------------------|
------------------------------|-----|-------------------|-------------------|
------------------------------|-----|-------------------|-------------------|
--5----6--5--4--5----6--5--4--|-----|-------------------|-------------------|
--5----6--5--4--5----6--5--4--|-----|-------------------|-------------------|
--3----4--3--2--3----4--3--2--|-----|-------------------|-------------------|


  W                   W                   W                   W                 
-------------------|-------------------|-------------------|-------------------|
-------------------|-------------------|-------------------|-------------------|
-------------------|-------------------|-------------------|-------------------|
-------------------|-------------------|-------------------|-------------------|
-------------------|-------------------|-------------------|-------------------|
-------------------|-------------------|-------------------|-------------------|


  W                   W                   W                   W                 
-------------------|-------------------|-------------------|-------------------|
-------------------|-------------------|-------------------|-------------------|
-------------------|-------------------|-------------------|-------------------|
-------------------|-------------------|-------------------|-------------------|
-------------------|-------------------|-------------------|-------------------|
-------------------|-------------------|-------------------|-------------------|


  W                   W                   W                   W                 
-------------------|-------------------|-------------------|-------------------|
-------------------|-------------------|-------------------|-------------------|
-------------------|-------------------|-------------------|-------------------|
-------------------|-------------------|-------------------|-------------------|
-------------------|-------------------|-------------------|-------------------|
-------------------|-------------------|-------------------|-------------------|


  W                   H.              Q.     Q     S S    H.            
-------------------|---------------|-------------------|---------------|
-------------------|---------------|-------------------|---------------|
-------------------|---------------|-------------------|---------------|
-------------------|--7------------|--L------L----10-9-|--7------------|
-------------------|--0------------|--L------L-----0-0-|--0------------|
-------------------|---------------|-------------------|---------------|


  PM PM PM      PM PM PM PM                                          
  S  S  S  S  S S  S  S  S  S  S S    S S S S S S  S  S  S  S  S  S  
-----------------------------------|--------------------------------|
-----------------------------------|--------------------------------|
-----------------------------------|--------------------------------|
-----------------------------------|--7-7-7-7-7-7-12-12-12-12-12-12-|
-----------2h-3-------------2h-3---|--0-0-0-0-0-0--0--0--0--0--0--0-|
--1--1--1-------0--1--1--1-------3-|--------------------------------|


   S  S  S  S  S  S S S S S  S S    S S S S S S  S  S  S  S  S  S  
---------------------------------|--------------------------------|
---------------------------------|--------------------------------|
---------------------------------|--------------------------------|
--10-10-10-10-10-10-9-9-9-9-10-9-|--7-7-7-7-7-7-12-12-12-12-12-12-|
---0--0--0--0--0--0-0-0-0-0--0-0-|--0-0-0-0-0-0--0--0--0--0--0--0-|
---------------------------------|--------------------------------|


  PM PM PM      PM    PM                                              
  S  S  S  S  S S  E  S  E  S     S  S  S  S  S  S  S  S  S  S  S  S  
------------------------------|--------------------------------------|
------------------------------|--------------------------------------|
------------------------------|--------------------------------------|
------------------------------|--10-10-10-10-10-10-15-15-15-15-15-15-|
-----------2h-3----7-----8--5-|---0--0--0--0--0--0--0--0--0--0--0--0-|
--1--1--1-------0--5--0--6--3-|--------------------------------------|


   S  S  S  S  S  S  S  S  S  S  S  S     S  S  S  S  S  S  S  S  S  S  S  S  
--------------------------------------|--------------------------------------|
--------------------------------------|--------------------------------------|
--------------------------------------|--------------------------------------|
--14-14-14-14-14-14-12-12-12-12-14-12-|--10-10-10-10-10-10-15-15-15-15-15-15-|
---0--0--0--0--0--0--0--0--0--0--0--0-|---0--0--0--0--0--0--0--0--0--0--0--0-|
--------------------------------------|--------------------------------------|


  PM PM PM      PM    PM                                              
  S  S  S  S  S S  E  S  E  S     S  S  S  S  S  S  S  S  S  S  S  S  
------------------------------|--------------------------------------|
------------------------------|--------------------------------------|
------------------------------|--------------------------------------|
------------------------------|--10-10-10-10-10-10-15-15-15-15-15-15-|
-----------2h-3----7-----8--5-|---0--0--0--0--0--0--0--0--0--0--0--0-|
--1--1--1-------0--5--0--6--3-|--------------------------------------|


   S  S  S  S  S  S  S  S  S  S  S  S     S  S  S  S  S  S  S  S  S  S  S  S  
--------------------------------------|--------------------------------------|
--------------------------------------|--------------------------------------|
--------------------------------------|--------------------------------------|
--14-14-14-14-14-14-12-12-12-12-14-12-|--10-10-10-10-10-10-15-15-15-15-15-15-|
---0--0--0--0--0--0--0--0--0--0--0--0-|---0--0--0--0--0--0--0--0--0--0--0--0-|
--------------------------------------|--------------------------------------|


  PM PM PM      PM    PM                                
  S  S  S  S  S S  E  S  E  S    S S S E  S S S S E  S  
------------------------------|------------------------|
------------------------------|------------------------|
------------------------------|------------------------|
------------------------------|------------------------|
-----------2h-3----7-----8--5-|--8-7-5-5--L-8-7-5-5--L-|
--1--1--1-------0--5--0--6--3-|--6-5-3-3--L-6-5-3-3--L-|


  S S S S S S  S S S  S S S    S S S E  S S S S E  S  
----------------------------|------------------------|
----------------------------|------------------------|
----------------------------|------------------------|
----------------------------|------------------------|
--8-7-5-8-7-5-10-8-7-10-8-7-|--8-7-5-5--L-8-7-5-5--L-|
--6-5-3-6-5-3--8-6-5--8-6-5-|--6-5-3-3--L-6-5-3-3--L-|


   T  T  T  T  T  T T T T T T T T T T T T T  E   S  
---------------------------------------------------|
---------------------------------------------------|
---------------------------------------------------|
---------------------------------------------------|
--10-10-10-10-10-10-7-7-7-7-7-7-8-8-8-8-8-8-12\--L-|
---8--8--8--8--8--8-5-5-5-5-5-5-6-6-6-6-6-6-10\--L-|


    PM PM         PM PM            PM PM                    
  S S  S  S  E  S S  S  S  E     S S  S  S  E  S S S S S S  
------------------------------|----------------------------|
------------------------------|----------------------------|
------------------------------|----------------------------|
------------------------------|----------------------------|
--4-------4s-5--4-------4s-5--|--4-------4s-5--8-8-8-5-7-5-|
--2-2--2--2s-3--2-2--2--2s-3--|--2-2--2--2s-3--6-6-6-3-5-3-|


    PM PM         PM PM            PM PM                    
  S S  S  S  E  S S  S  S  E     S S  S  S  E  S S S S S S  
------------------------------|----------------------------|
------------------------------|----------------------------|
------------------------------|----------------------------|
------------------------------|----------------------------|
--4-------4s-5--4-------4s-5--|--4-------4s-5--8-8-8-5-7-5-|
--2-2--2--2s-3--2-2--2--2s-3--|--2-2--2--2s-3--6-6-6-3-5-3-|


    PM PM         PM PM            PM PM                    
  S S  S  S  E  S S  S  S  E     S S  S  S  E  S S S S S S  
------------------------------|----------------------------|
------------------------------|----------------------------|
------------------------------|----------------------------|
------------------------------|----------------------------|
--4-------4s-5--4-------4s-5--|--4-------4s-5--8-8-8-5-7-5-|
--2-2--2--2s-3--2-2--2--2s-3--|--2-2--2--2s-3--6-6-6-3-5-3-|


    PM PM         PM PM            PM PM                    
  S S  S  S  E  S S  S  S  E     S S  S  S  E  S S S S S S  
------------------------------|----------------------------|
------------------------------|----------------------------|
------------------------------|----------------------------|
------------------------------|----------------------------|
--4-------4s-5--4-------4s-5--|--4-------4s-5--8-8-8-5-7-5-|
--2-2--2--2s-3--2-2--2--2s-3--|--2-2--2--2s-3--6-6-6-3-5-3-|


           |-3-| |-3-| |-3-| |-3-|             |-3-| |-3-|  |--3--|  |--3--|  
  H        S S S S S S S S S S S S    H        S S S S S S  S  S  S  S  S  S  
-----------------------------------|-----------------------------------------|
-----------------------------------|-----------------------------------------|
-----------------------------------|-----------------------------------------|
-----------7-7-7-7-7-7-7-7-7-7-7-7-|-----------7-7-7-7-7-7-10-10-10-10-10-10-|
-----------5-5-5-5-5-5-5-5-5-5-5-5-|-----------5-5-5-5-5-5--8--8--8--8--8--8-|
-----------------------------------|-----------------------------------------|


           |-3-| |-3-|                                
  H        S S S S S S Q       Q    Q    E  E  E  E   
----------------------------|------------------------|
----------------------------|------------------------|
----------------------------|------------------------|
-----------7-7-7-7-7-7-5----|--6----5----4--6--5--4--|
-----------5-5-5-5-5-5-5----|--6----5----4--6--5--4--|
-----------------------3----|--4----3----2--4--3--2--|


           |-3-| |-3-| |-3-| |-3-|             |-3-| |-3-|  |--3--|  |--3--|  
  H        S S S S S S S S S S S S    H        S S S S S S  S  S  S  S  S  S  
-----------------------------------|-----------------------------------------|
-----------------------------------|-----------------------------------------|
-----------------------------------|-----------------------------------------|
-----------7-7-7-7-7-7-7-7-7-7-7-7-|-----------7-7-7-7-7-7-10-10-10-10-10-10-|
-----------5-5-5-5-5-5-5-5-5-5-5-5-|-----------5-5-5-5-5-5--8--8--8--8--8--8-|
-----------------------------------|-----------------------------------------|


           |-3-| |-3-|              |--3--|       |--3--|                       
  H        S S S S S S Q       Q    E  E  E  Q    E  E  E     W                 
----------------------------|------------------------------|-------------------|
----------------------------|------------------------------|-------------------|
----------------------------|------------------------------|-------------------|
-----------7-7-7-7-7-7-5----|--5----6--5--4--5----6--5--4--|-------------------|
-----------5-5-5-5-5-5-5----|--5----6--5--4--5----6--5--4--|-------------------|
-----------------------3----|--3----4--3--2--3----4--3--2--|-------------------|


  W                   W                   W                   W                 
-------------------|-------------------|-------------------|-------------------|
-------------------|-------------------|-------------------|-------------------|
-------------------|-------------------|-------------------|-------------------|
-------------------|-------------------|-------------------|-------------------|
-------------------|-------------------|-------------------|-------------------|
-------------------|-------------------|-------------------|-------------------|


  W                   W                   W                   W                 
-------------------|-------------------|-------------------|-------------------|
-------------------|-------------------|-------------------|-------------------|
-------------------|-------------------|-------------------|-------------------|
-------------------|-------------------|-------------------|-------------------|
-------------------|-------------------|-------------------|-------------------|
-------------------|-------------------|-------------------|-------------------|


  W                   W                   W                   W                 
-------------------|-------------------|-------------------|-------------------|
-------------------|-------------------|-------------------|-------------------|
-------------------|-------------------|-------------------|-------------------|
-------------------|-------------------|-------------------|-------------------|
-------------------|-------------------|-------------------|-------------------|
-------------------|-------------------|-------------------|-------------------|


  W                   W                 
-------------------|-------------------|
-------------------|-------------------|
-------------------|-------------------|
-------------------|-------------------|
-------------------|-------------------|
-------------------|-------------------|


  |---3--|  |---3--|   |--3--|  |--3--|                        
  E  E   E  E   E  E   E  E  E  E  E  E     W                  
-----------------------------------------|--------------------|
--8--------------------------------------|--------------------|
-----9------9----------------------------|--------------------|
--------10-----10--7--10--7-----7--------|--------------------|
-----------------------------8-----8--7--|--5~----------------|
-----------------------------------------|--------------------|


  W                                                         
-------------------|-------------------|-------------------|
-------------------|-------------------|-------------------|
-------------------|-------------------|-------------------|
-------------------|-------------------|-------------------|
--L----------------|-------------------|-------------------|
-------------------|-------------------|-------------------|


  S S S S S S S S S S S S S S S S    S S S S S S S S S S S S S S S S  
----------------------------------|----------------------------------|
----------------------------------|----------------------------------|
----------------------------------|----------------------------------|
----------------------------------|----------------------9-9-5-5-----|
--5-5-5-5-5-5-5-5-7-7-5-5-8-8-5-5-|------6-6-6-6-6-6-7-7---------9-9-|
----------------------------------|--8-8-----------------------------|


  S S S S S S S S S S S S S S S S    S S S S S S S S S S S S S S S S  
----------------------------------|----------------------------------|
----------------------------------|----------------------------------|
----------------------------------|--------------------------9-9-----|
----------------------------------|----------------------9-9-----9-9-|
--5-5-5-5-5-5-5-5-7-7-5-5-8-8-5-5-|------6-6-6-6-6-6-7-7-------------|
----------------------------------|--8-8-----------------------------|


  S S S S S S S S S S S S S S S S    S S S S S S S S S S S S S S S S  
----------------------------------|----------------------------------|
----------------------------------|----------------------------------|
----------------------------------|----------------------------------|
----------------------------------|----------------------------------|
--5-5-5-5-5-5-5-5-5-5-5-5---------|----------------------2-2---------|
--------------------------5-5-5-5-|--4-4-4-4-4-4-4-4-0-0-----3-3-2-2-|


  S S S S S S S S S S S S S S S S    S S S S S S S S S S S S S S S S  
----------------------------------|----------------------------------|
----------------------------------|----------------------------------|
----------------------------------|----------------------------------|
----------------------------------|--------------------------2-2-----|
--5-5-5-5-5-5-5-5-5-5-5-5---------|----------------------2-2-----2-2-|
--------------------------5-5-5-5-|--4-4-4-4-4-4-4-4-0-0-------------|


  S S S S S S S S S S S S S S S S    S S S S S S S S S S S S S S S S  
----------------------------------|----------------------------------|
----------------------------------|----------------------------------|
----------------------------------|----------------------------------|
----------------------------------|----------------------------------|
--5-5-5-5-5-5-5-5-5-5-5-5---------|----------------------2-2---------|
--------------------------5-5-5-5-|--4-4-4-4-4-4-4-4-0-0-----3-3-2-2-|


  S S S S S S S S S S S S S S S S    S S S S S S S S S S S S S S S S  
----------------------------------|----------------------------------|
----------------------------------|----------------------------------|
----------------------------------|----------------------------------|
----------------------------------|--------------------------2-2-----|
--5-5-5-5-5-5-5-5-5-5-5-5---------|----------------------2-2-----2-2-|
--------------------------5-5-5-5-|--4-4-4-4-4-4-4-4-0-0-------------|


  S S S S S S S S S S S S S S S S    S S S S S S S S S S S S S S S S  
----------------------------------|----------------------------------|
----------------------------------|----------------------------------|
----------------------------------|----------------------------------|
----------------------------------|----------------------------------|
--5-5-5-5-5-5-5-5-5-5-5-5---------|----------------------2-2---------|
--------------------------5-5-5-5-|--4-4-4-4-4-4-4-4-0-0-----3-3-2-2-|


  S S S S S S S S S S S S S S S S    S S S S S S S S S S S S S S S S  
----------------------------------|----------------------------------|
----------------------------------|----------------------------------|
----------------------------------|----------------------------------|
----------------------------------|--------------------------2-2-----|
--5-5-5-5-5-5-5-5-5-5-5-5---------|----------------------2-2-----2-2-|
--------------------------5-5-5-5-|--4-4-4-4-4-4-4-4-0-0-------------|


  Put some reverb here and  let your finger on fret                    
  E                                                 E  Q    Q    Q     
----------------------------------------------------------------------|
----------------------------------------------------------------------|
-------------------------------------------------------7---------7----|
----------------------------------------------------7-------7---------|
--5-------------------------------------------------------------------|
----------------------------------------------------------------------|


  E  E  Q    Q    Q       E  E  Q    Q    Q       E  E  Q    Q    Q     
-----------------------|-----------------------|-----------------------|
-----------------------|-----------------------|-----------------------|
-----------------------|--------7---------7----|-----------------------|
--------8---------8----|-----7-------7---------|-----------------------|
--7--7-------6---------|--5--------------------|--------8---------8----|
-----------------------|-----------------------|--7--7-------6---------|


  E  E  Q    Q    Q       E  E  Q    Q    Q       E  E  Q    Q    Q     
-----------------------|-----------------------|-----------------------|
-----------------------|-----------------------|-----------------------|
--------7---------7----|-----------------------|--------7---------7----|
-----7-------7---------|--------8---------8----|-----7-------7---------|
--5--------------------|--7--7-------6---------|--5--------------------|
-----------------------|-----------------------|-----------------------|


  E  E  Q    Q    Q       S S S S S S S S S S S S  S  S S S  
-----------------------|------------------------------------|
-----------------------|------------------------------------|
-----------------------|--7-7-7-7-7-7-7-7-9-9-7-7-10-10-7-7-|
-----------------------|------------------------------------|
--------8---------8----|------------------------------------|
--7--7-------6---------|------------------------------------|


   S  S S S S S S S S S S S S S S S    S S S S S S S S S S S S  S  S S S  
------------------------7-7---------|------------------------------------|
----------------------------8-8-7-7-|------------------------------------|
--------8-8-8-8-8-8-9-9-------------|--7-7-7-7-7-7-7-7-9-9-7-7-10-10-7-7-|
--10-10-----------------------------|------------------------------------|
------------------------------------|------------------------------------|
------------------------------------|------------------------------------|


   S  S S S S S S S S S  S  S  S  S  S  S    S S S S S S S S S S S S  S  S S S  
------------------------------12-12-------|------------------------------------|
------------------------12-12-------12-12-|------------------------------------|
--------8-8-8-8-8-8-9-9-------------------|--7-7-7-7-7-7-7-7-9-9-7-7-10-10-7-7-|
--10-10-----------------------------------|------------------------------------|
------------------------------------------|------------------------------------|
------------------------------------------|------------------------------------|


   S  S S S S S S S S S S S S S S S    S S S S S S S S S S S S  S  S S S  
------------------------7-7---------|------------------------------------|
----------------------------8-8-7-7-|------------------------------------|
--------8-8-8-8-8-8-9-9-------------|--7-7-7-7-7-7-7-7-9-9-7-7-10-10-7-7-|
--10-10-----------------------------|------------------------------------|
------------------------------------|------------------------------------|
------------------------------------|------------------------------------|


   S  S S S S S S S S S  S  S  S  S  S  S    S S S S S S S S S S S S  S  S S S  
------------------------------12-12-------|------------------------------------|
------------------------12-12-------12-12-|------------------------------------|
--------8-8-8-8-8-8-9-9-------------------|--7-7-7-7-7-7-7-7-9-9-7-7-10-10-7-7-|
--10-10-----------------------------------|------------------------------------|
------------------------------------------|------------------------------------|
------------------------------------------|------------------------------------|


   S  S S S S S S S S S S S S S S S    S S S S S S S S S S S S  S  S S S  
------------------------7-7---------|------------------------------------|
----------------------------8-8-7-7-|------------------------------------|
--------8-8-8-8-8-8-9-9-------------|--7-7-7-7-7-7-7-7-9-9-7-7-10-10-7-7-|
--10-10-----------------------------|------------------------------------|
------------------------------------|------------------------------------|
------------------------------------|------------------------------------|


   S  S S S S S S S S S  S  S  S  S  S  S    S S S S S S S S S S S S  S  S S S  
------------------------------12-12-------|------------------------------------|
------------------------12-12-------12-12-|------------------------------------|
--------8-8-8-8-8-8-9-9-------------------|--7-7-7-7-7-7-7-7-9-9-7-7-10-10-7-7-|
--10-10-----------------------------------|------------------------------------|
------------------------------------------|------------------------------------|
------------------------------------------|------------------------------------|


   S  S S S S S S S S S S S S S S S    S S S S S S S S S S S S  S  S S S  
------------------------7-7---------|------------------------------------|
----------------------------8-8-7-7-|------------------------------------|
--------8-8-8-8-8-8-9-9-------------|--7-7-7-7-7-7-7-7-9-9-7-7-10-10-7-7-|
--10-10-----------------------------|------------------------------------|
------------------------------------|------------------------------------|
------------------------------------|------------------------------------|


   S  S S S S S S S S S  S  S  S  S  S  S    E  E  Q    Q    Q     
------------------------------12-12-------|-----------------------|
------------------------12-12-------12-12-|-----------------------|
--------8-8-8-8-8-8-9-9-------------------|--------7---------7----|
--10-10-----------------------------------|-----7-------7---------|
------------------------------------------|--5--------------------|
------------------------------------------|-----------------------|


  E  E  Q    Q    Q       E  E  Q    Q    Q       E  E  Q    Q    Q     
-----------------------|-----------------------|-----------------------|
-----------------------|-----------------------|-----------------------|
-----------------------|--------7---------7----|-----------------------|
--------8---------8----|-----7-------7---------|-----------------------|
--7--7-------6---------|--5--------------------|--------8---------8----|
-----------------------|-----------------------|--7--7-------6---------|


  E  E  Q    Q    Q       E  E  Q    Q    Q       E  E  Q    Q    Q     
-----------------------|-----------------------|-----------------------|
-----------------------|-----------------------|-----------------------|
--------7---------7----|-----------------------|--------7---------7----|
-----7-------7---------|--------8---------8----|-----7-------7---------|
--5--------------------|--7--7-------6---------|--5--------------------|
-----------------------|-----------------------|-----------------------|


  E  E  Q    Q    Q       Q    H         Q      
-----------------------|----------------------||
-----------------------|----------------------||
-----------------------|----------------------||
-----------------------|--7----L\-------------||
--------8---------8----|--5----L\-------------||
--7--7-------6---------|--5----L\-------------||

Добавлено: 28.03.2012
Другие материалы по этой песне:

Страница создана 26.02.2012
http://primanota.ru/cradle-of-filth/under-huntress-moon-chords.htm
Привет, Гость.
Предлагаем пройти революционный курс по гитаре.
Подарок от PrimaNota.Ru, забирай!