PrimaNota.ru - самый крупный в мире бесплатный архив песенных текстов, аккордов, табулатур и нот


Cradle Of Filth - Tragic Kingdom - текст песни, таба, видео

Регистрация Запомнить меня
Войти через:  Facebook Google Twitter Vk Yandex Mail.ru

Cradle Of Filth - Tragic Kingdom - текст песни, таба, видео

Печатать
Просмотров: 133
Cradle of Filth
Tragic Kingdom
Godspeed on the Devil's thunder


use the comments option for corrections/suggestions thanks!

v1.0 October 2008



(00:00) Riff A

d:-------------------------------------------------------------------|
A:-------------------------------------------------------------------|
F:o------------------------------------------------------------------|
C:o------------------------------------------------------------------|
G:---0-0-0-0-0-0-0-0-0-0-0-0-0-0-0-0-0-0-0-0-0-0-0-0-5-5-5-5-5-5-5-5-|
D:-------------------------------------------------------------------|


d:-------------------------------------------------------------------|
A:-------------------------------------------------------------------|
F:------------------------------------------------------------------o|
C:------------------------------------------------------------4-5-3-o|
G:-0-0-0-0-0-0-0-0-0-0-0-0-0-0-0-0---------3---------3----3---2s3-1--|
D:---------------------------------0-0-0-0-1-0-0-0-0-1--0-1-0--------|



(00:26) Riff B

d:-------------------------------------------------------------------|
A:-------------------------------------------------------------------|
F:o--4s5s4~---------------------5s7s5-------------------------------o|
C:o--2s3s2~---------------------3s5s3---------3s5-3-----------------o|
G:-----------2------4-4----4-4-----------2-3--3s5-3------------------|
D:-----------0----0-2-2--0-2-2-----------0-1--------3-3-3-3-3-3-3-3--|



(00:51) Riff C

d:-------------------------------------------------------------------|
A:-------------------------------------------------------------------|
F:o-----------------------------------------------------------------o|
C:o-----------------------------------------------------------------o|
G:---7--7--7-5-5--------------------------------5-------5------------|
D:---------------6--6--6-5--5--2--2--1-1--0-6-7---5-6-7--------------|



(01:04) Riff D

d:-------------------------------------------------------------------|
A:-------------------------------------------------------------------|
F:o-----------------------------------------------------------------o|
C:o-----------------------------------------------------------------o|
G:---7--7--7-5-5--------------------------------5-------5------------|
D:---------------6--6--6-5--5--2--2--1-1--0-6-7---5-6-7--------------|
 |                                                                   |
d:-------------------------------------------------------------------|
A:-------------------------------------------------------------------|
F:-------------------------------------------------------------------|
C:------5------------------------------------------------------------|
G:---7-----7-5-5-5--5--5------------------------5-------5------------|
D:-----------------------5--5--2--2--1-1--0-6-7---5-6-7--------------|



(02:34) Riff E (excluded harmonies for now)

d:-------------------------------------------------------------------|
A:-----8-10----------------------------------------------------------|
F:---9-------10--12-10h12p10s9---------------------------------------|
C:------------------------------10---10-12-14--12h14p12-10--10-12----|
G:-------------------------------------------------------------------|
D:-------------------------------------------------------------------|


d:-------------------------------------------------------------------|
A:-----8-10----------------------------------------------------------|
F:---9-------10--12-10h12p10s9---------------------------------------|
C:------------------------------10---10-12-14--12-12-10-9-10---------|
G:-------------------------------------------------------------------|
D:-------------------------------------------------------------------|



(02:59) Riff F

d:-------------------------------------------------------------------|
A:-------------------------------------------------------------------|
F:-------------------------------------------------------------------|
C:-------------------------------------------------------------------|
G:------5-7-----8-7------5-7-----10-8-----5-7-----8-7---10-8-7-8-7-5-|
D:--0-5-----5-6------0-5-----0-8------0-5-----5-6-----8--------------|


d:-------------------------------------------------------------------|
A:-------------------------------------------------------------------|
F:-------------------------------------------------------------------|
C:--7----------------------------------------------------------------|
G:-------------------------------------------------------------------|
D:-------------------------------------------------------------------|



(03:12) Riff G

d:-------------------------------------------------------------------|
A:-------------------------------------------------------------------|
F:---------------------------------7-5---------------------7-5-4-5-4-|
C:------0-7-9-7---10-9---0-7-9---5--------0-7-9-7---10-9-5-----------|
G:----0---------8------0-------0--------0---------8------------------|
D:-------------------------------------------------------------------|


d:-------------------------------------------------------------------|
A:-----5-------------------------------------------------------------|
F:-------------------------------------------------------------------|
C:--7----------------------------------------------------------------|
G:-------------------------------------------------------------------|
D:-------------------------------------------------------------------|



(03:25) Riff H (lead, over Riff C)

d:-------------------------------------------------------------------|
A:---15fb~---15fb~~--15hb-15-13-12----------13-12----12-13-13fb~-----|
F:---------------------------------14----14-------14-----------------|
C:-------------------------------------------------------------------|
G:-------------------------------------------------------------------|
D:-------------------------------------------------------------------|


d:-------------------------------------------------------------------|
A:--12-13p12----12---------------------------------------------------|
F:-----------14----14-12---------16--14-14--12-12--11-11-----16--14--|
C:-----------------------14~~----------------------------------------|
G:-------------------------------14--12-12--10-10--9--9------10--9---|
D:-------------------------------------------------------------------|


d:-------------------------------------------------------------------|
A:-------------------------------------------------------------------|
F:--14--12-12--11-11--12-14-14-------------------4-----4-5---4-5-7---|
C:--------------------14-16-16-------4-5-7-4-5-7---5-7-----7---------|
G:--9---7--7---5--5---7--9--9------7---------------------------------|
D:-------------------------------------------------------------------|


d:-------------------------------------------------------------------|
A:-20p0-19p0-17----------20p0-19p0-17----------22p0-20p0-19----------|
F:--------------19-18-16--------------19-18-16--------------19-18----|
C:----------------------------------------------------------------21-|
G:-------------------------------------------------------------------|
D:-------------------------------------------------------------------|


d:-------------------------------------------------------------------|
A:--20p0-19p0-17----------20-19-17-19-17----17-----------------------|
F:---------------19-18-16----------------19----19-17-19-17-16-17-16--|
C:-------------------------------------------------------------------|
G:-------------------------------------------------------------------|
D:-------------------------------------------------------------------|


d:-------------------------------------------------------------------|
A:-------------------------------------------------------------------|
F:-----16------------------------------------------------------------|
C:--19----19-17-19-17-16-17-16----16---------------------------------|
G:-----------------------------19----19-17-19-16-17-16---------------|
D:-------------------------------------------------------------------|


d:-------------------------------------------------------------------|
A:-------------------------------------------t10p8p7h8p7-t12p10p8h10-|
F:---12--11~---7--9~~-------12-14fb-12-11~~--------------------------|
C:-----------------------14------------------------------------------|
G:-------------------------------------------------------------------|
D:-------------------------------------------------------------------|


d:-------------------------------------------------------------------|
A:--p8-t13p12p10h12p10-t15p13p12h13p12-12-15-15-15fb~~---------------|
F:-------------------------------------------------------------------|
C:-------------------------------------------------------------------|
G:-------------------------------------------------------------------|
D:-------------------------------------------------------------------|



(04:19)

d:-------------------------------------------------------------------|
A:-------------------------------------------------------------------|
F:-------------------------------------------------------------------|
C:---2----4----5-----------------------------------------------------|
G:---0----2----3-------------2--3------------------------------------|
D:---------------------------0--1------------------------------------|

d:-------------------------------------------------------------------|
A:-------------------------------------------------------------------|
F:-------------------------------------------------------------------|
C:---2----4----5-----------------------------------------------------|
G:---0----2----3-------------2--6----------------------2-3-5-3-5-6---|
D:---------------------------0--4----------------------0-1-3-1-3-4---|



(04:45)

d:-------------------------------------------------------------------|
A:-------------------------------------------------------------------|
F:o------------------------------------------------------------------|
C:o------------------------------------------------------------------|
G:---3-3-3-3-3-3-3-3-3-3-3-3-3-3-3-3-3-3-3-3-3-3-3-3-3-3-3-3-5-5-5-5-|
D:-------------------------------------------------------------------|


d:-------------------------------------------------------------------|
A:-------------------------------------------------------------------|
F:-------------------------------------------------------------------|
C:-------------------------------------------------------------------|
G:--2-2-2-2-2-2-2-2-2-2-2-2-3-3-3-3-0-0-0-0-0-0-0-0-0-0-0-0-2-2-2-2--|
D:-------------------------------------------------------------------|


d:-------------------------------------------------------------------|
A:-------------------------------------------------------------------|
F:------------------------------------------------------------------o|
C:------------------------------------------------------------------o|
G:-------------------------------------------------------------------|
D:--1-1-1-1-1-1-1-1-1-1-1-1-0-0-0-0----------------------------------|


Добавлено: 26.05.2012
Другие материалы по этой песне:

Страница создана 29.03.2012
http://primanota.ru/cradle-of-filth/tragic-kingdom-chords.htm
Привет, Гость.
Предлагаем пройти революционный курс по гитаре.
Подарок от PrimaNota.Ru, забирай!