PrimaNota.ru - самый крупный в мире бесплатный архив песенных текстов, аккордов, табулатур и нот


Cradle Of Filth - Portrait Of The Dead Countess - таба, бас-таба, видео

Регистрация Запомнить меня
Войти через:  Facebook Google Twitter Vk Yandex Mail.ru

Cradle Of Filth - Portrait Of The Dead Countess - таба, бас-таба, видео

Печатать
Просмотров: 123
Авторы музыки: Stuart Anstis, Robin Eaglestone, Dani Filth, Nicholas Barker, Gian Pyres, Les Smith

-------------------------------------------------------------------------------
                Portrait Of The Dead Countess - Cradle Of Filth
-------------------------------------------------------------------------------

Tuning: E-A-D-G-B-e

Note: Not sure if it's just the keyboard but sounds like there's a lot of 
dissonant 2nds (which I didn't include).


e||-7-7-7-|-8-8-8-|-8-8-8--|-8--8--8--|-8--8--8--|----8--7-----|----10-12-10--|
B||-7-7-7-|-8-8-8-|-8-8-8--|-10-10-10-|-10-8--8--|-10-10-8-----|-13----12-12--|
G||-7-7-7-|-7-7-7-|-9-9-9--|-10-10-10-|-10-10-10-|-10-10-9-(7)-|-10----10-10--|
D||-----4-|-------|--------|-------7--|-10-9--10-|-12-12-------|-12----9------|
A||-5-7---|-5-7-8-|-7-8-10-|-8--10----|----------|-------------|----------12--|
E||-------|-------|--------|----------|----------|-------------|--------------|

e|-12--(16)-|--------|-13--7-|-6----|-3----|-2--2-|-1--1-|-5--6-8-|
B|-12---9---|--------|-13--6-|-8--8-|-7--7-|-4--4-|-4--4-|-6--4-6-|
G|-10---9---|-9---9--|-10--7-|-6--6-|-6--6-|-3--3-|-3--3-|-5--5-5-|
D|------11--|-11--10-|-12----|-5--8-|-8--8-|-1--1-|------|-8------|
A|-10---11--|-0---0--|-----5-|----7-|----9-|------|-1----|-8--6-6-|
E|----------|--------|-10----|------|-9----|----1-|----2-|--------|

e|--9---8---9--|--11--8------|-----------8---8--|--9---8--|-6---6--|--6--6-4-|
B|--11--11--11-|--11--10-----|-----------10--9--|--11--9--|-7---7--|--7--7-7-|
G|--10--10--10-|--10--8------|-----------10--10-|--10--10-|-6---6--|--6--6-6-|
D|--8---8---8--|--8---7------|---------------10-|--8---10-|-8---6--|--8--6-4-|
A|-------------|------0------|-----------8---8--|---------|-9---9--|--9--9---|
E|-(6)-(6)-(6)-|-(6)-----(8)-|-(9)-(11)---------|---------|----(4)-|-(6)-----|

e|--6------------6-------------(6)-8-9-11--8--9-|--11---13---14--(16)-18-|
B|--7------6-7-9-----9-7-6-7-9--7---------------|---------------------21-|
G|-(5)-6-8----------------------8---------------|---------------------11-|
D|--8---------------------------8---------------|---------------------9--|
A|--6---------------------------9---------------|---------------------11-|
E|----------------------------------------------|------------------------|

e|--4----------|----4-|----6-|-6--6-|--6--|----------|------------|------------|
B|--4---(7)--5-|----5-|-6--6-|-8--6-|--9--|-8--9--11-|-10--9---11-|-8-------8--|
G|--4--------6-|-6--5-|-5--6-|-6--5-|--6--|-6-----10-|-10--10-----|-10------10-|
D|--6--------6-|-6--6-|-6--6-|-8--5-|--6--|-8-----10-|-10--9------|-9-------9--|
A|-(6)-------4-|----3-|-3--8-|----3-|--8--|----------|-10--8------|---------10-|
E|-(4)-------4-|-4----|----6-|-6----|--6--|-6-----8--|-8----------|-10--10-----|

e|-3--3-|-2--2-|-6--4--6-|-7-----14-12-|--10--9-10--|-12--9--14-15-14-12-14-|
B|-5--5-|-5--5-|-2--2----|-8--14-------|--12--------|-----12----------------|
G|-4--4-|-4--4-|-3--3----|-9--12-------|--11--------|-----11----------------|
D|-2--4-|------|-4--4----|-9--9--------|--9---------|-----9-----------------|
A|------|-2----|-4--4----|-7--10-------|------------|-----------------------|
E|-0----|----3-|-2--2----|-0--0--------|-(7)--------|----(7)----------------|

e|-9---10---12-|-9---9---9--|-10---9---12--14-|--------|------------|------|
B|-11----------|-10--12--10-|-12---12--12-----|-8---8--|-8---8---8--|-8----|
G|-11----------|-11--11--11-|-12---12--12-----|-7---7--|-7---7---7--|-9--9-|
D|-11--12---14-|-11--11--11-|-12---11--9------|-9---7--|-9---7---x--|-9--9-|
A|-9-----------|-9---9---9--|-10--------------|-10--10-|-10--10--10-|-7--9-|
E|-9---10---12-|------------|-10--(3)---------|--------|------------|-0--0-|

e|----------|------|---------|------------|------------|-----||
B|-8------8-|-4--4-|-4--4--4-|-6----------|-6----------|-----||
G|-9---9--9-|-3--3-|-3--3--3-|-7----------|-7----------|--3--||
D|-9---9--9-|-5--3-|-5--3--x-|-8----------|-8----------|--3--||
A|-10--9--7-|-6--6-|-6--6--6-|-5---6---5--|-5---3---5--|--4--||
E|-0---0--9-|------|---------|------------|------------|--6--||
Добавлено: 19.11.2015
Другие материалы по этой песне:
  • Аккорды и текст

Страница создана 26.05.2012
http://primanota.ru/cradle-of-filth/portrait-of-the-dead-countess-chords.htm
Привет, Гость.
Предлагаем пройти революционный курс по гитаре.
Подарок от PrimaNota.Ru, забирай!