PrimaNota.ru - самый крупный в мире бесплатный архив песенных текстов, аккордов, табулатур и нот


Cradle Of Filth - Temptations - таба, видео

Регистрация Запомнить меня
Войти через:  Facebook Google Twitter Vk Yandex Mail.ru

Cradle Of Filth - Temptations - таба, видео

Печатать
Просмотров: 221
Esta es la guitar tab de Temptations de Cradle of Filth.
Y es toy un 90% seguro de que es correcta.
Para cualquier aclaracion de esta tablatura pueden contactarme en mi mail: 

daniel_al13@hotmail.com

me llamo Daniel ¨guitarrista¨(guitarist) jeje XD 

Intro de guitarra

Riff:1
|----------------|
|----------------|
|----------------|
|--2-5-7-5-4-5---|
|--0-3-5-3-2-3---|
|----------------|
Riff:2
|----------------|
|----------------|
|----------------|
|--2-5-7-5-4-2---|
|--0-3-5-3-2-0---|
|----------------|

Coro or Chorus

Riff:3
|------------------------|
|------------------------|
|------------------------|
|--8-7-5-3-5-----2-5-3---|
|--6-5-3-1-3-----0-3-1---|
|------------0-0---------| x3

Riff:4
|-----------------------------------------------------------------|
|-----------------------------------------------------------------|
|-----------------------------------------------------------------|
|---4-------------4----------------4-------------4----------------|
|---2------5------2------5----5555-2------5------2------5---------|
|----------3-------------3----3333--------3-------------3---------|

Riff:1
|----------------|
|----------------|
|----------------|
|--2-5-7-5-4-5---|
|--0-3-5-3-2-3---|
|----------------|

Riff:2
|----------------|
|----------------|
|----------------|
|--2-5-7-5-4-2---|
|--0-3-5-3-2-0---|
|----------------|

Coro or Chorus

Riff:3
|------------------------|
|------------------------|
|------------------------|
|--8-7-5-3-5-----2-5-3---|
|--6-5-3-1-3-----0-3-1---|
|------------0-0---------| x3

LA OTRA PARTE NO LA HE SACADO CUANDO LA SAQUE LA PONGO

Outro:

|------------------------|
|------------------------|
|--8-7-5-3-5-----2-5-3---|
|--6-5-3-1-3-----0-3-1---|
|------------0-0---------|
|------------------------| x4 

Добавлено: 29.07.2012
Другие материалы по этой песне:
  • Аккорды и текст

Страница создана 29.07.2012
http://primanota.ru/cradle-of-filth/temptations-chords.htm
Привет, Гость.
Предлагаем пройти революционный курс по гитаре.
Подарок от PrimaNota.Ru, забирай!