PrimaNota.ru - самый крупный в мире бесплатный архив песенных текстов, аккордов, табулатур и нот


Cradle Of Filth - Retreat Of The Sacred Heart - текст песни, таба, видео

Регистрация Запомнить меня
Войти через:  Facebook Google Twitter Vk Yandex Mail.ru

Cradle Of Filth - Retreat Of The Sacred Heart - текст песни, таба, видео

Печатать
Просмотров: 150
Уроки эстрадного вокала в Санкт-Петербурге
retreat of the sacred heart
dgcfad        '*'=palm mute

Riff A 0:00-0:21,1:26-1:47,2:23----------------------|end
-----------------------------------------------------|
-----------------------------------------------------|
-----------------------------------------------------|
-----------------------------------------------------|
********-5-5-********-4-4-********-5-5--9-9--8-8--5--|
22222222-3-3-33333333-2-2-22222222-3-3--7-7--6-6--3--|


----------------------------------------------------|
----------------------------------------------------|
----------------------------------------------------|
----------------------------------------------------|
********-5-5-********-4-4-********-5-5--3-3--6-6--5-|
22222222-3-3-33333333-2-2-22222222-3-3--1-1--4-4--3-|


Riff B .all notes tremelo picked.0:21-0:42,2:19-2:41
------------------------------------------------|
------------------------------------------------|
------------------------------------------------|
------6-----5----------6------------------------|
-4-------4--------4-------4---6---4--7--4--6----|
------------------------------------------------|

---------------------------------------------------|
---------------------------------------------------|
------------------------------***************------|
-----6------5----------6-------6-8-6-8-9-8-6-8-----|
-4------4---------4--------4---4-6-4-6-7-6-4-6-----|
-------------------------------4-6-4-6-7-6-4-6-----|


Riff C Gt.1 6th strg open notes are pm'd 0:43-1:04,2:40-3:01
--------------------------------------------------------|
--------------------------------------------------------|
--------------------------------------------------------|
--------------------------------------------------------|
-7----5---7----8----7---5----7----5---7--10101010-99-77-|
---00--00---00---00---00--00---00---00-0-8-8-8-8--77-55-|

Gt.2
--------------------------------------------------------|
--------------------------------------------------------|
--------------------------------------------------------|
-9----7---9----10---9----7---5----4---7-----------------|
-----------------------------------------10101010-99-77-|
---00--00---00---00---00--00---00---00-0-8-8-8-8--77-55-|

Gt.2 second time
--------------------------------------------------------|
--------------------------------------------------------|
--------------------------------------------------------|
-5----4---5----7---5----4---9-----7---9-----------------|
-----------------------------------------10101010-99-77-|
---00--00---00---00---00--00---00---00-0-8-8-8-8--77-55-|


Riff D .all notes tremelo picked.1:04-1:25,3:01-3:22
----------------------------------------------------|
----------------------------------------------------|
----------------------------------------------------|
----------------------------------------------------|
-----4---3------4---3------4---3-------4---3--------|
-2----------2----------2-----------2----------------|


Riff E Gt.1 1:46-2:07
----------------------------------------------------------------|
----------------------------------------------------------------|
----------------------------------------------------------------|
-------------------------------------7--------------------------|
-10-9-7-9-7--10-9-7-9----10-9-7-9-7---10-9-10-9-7-9---10-9-55---|
----------------------10----------------------------10-8-7-33---|

Gt.2                                           ____
----------------------------------------------/    \---------------|
----12--10-------------------12--10--12--15---13-15-13-12-13-15-13-|
-9---------12--11-12-11-9--9---------------------------------------|
-------------------------------------------------------------------|
-------------------------------------------------------------------|
-------------------------------------------------------------------|
Добавлено: 15.04.2012
Другие материалы по этой песне:
  • Аккорды и текст

Страница создана 15.04.2012
http://primanota.ru/cradle-of-filth/retreat-of-the-sacred-heart-chords.htm
Привет, Гость.
Предлагаем пройти революционный курс по гитаре.
Подарок от PrimaNota.Ru, забирай!