PrimaNota.ru - самый крупный в мире бесплатный архив песенных текстов, аккордов, табулатур и нот


Comeback Kid - Something Else - бас-таба, видео

Регистрация Запомнить меня
Войти через:  Facebook Google Twitter Vk Yandex Mail.ru

Comeback Kid - Something Else - бас-таба, видео

Печатать
Просмотров: 153
 ~ let ring

2X
G-------------------------------------------------------------------------|
D-------------------------------------------------------------------------|
A-------------------00-000-0-000-0000-------------------------------------|
D-44-444-4-444-4444-------------------00-000-0-000-0000-22-222-0-000-0000-|

G-----------|
D-----------|
A-----------|
D-4~---2222-|

G--------------------------------------------------------------------------------------|
D--------------------------------------------------------------------------------------|
A-----------00-0-00-0-------------------------------00-0-00-0--------------------------|
D-44-4-44-4-----------00-0-00-0-22-2-00-0-44-4-44-4-----------00-0-00--2-2-0-0-4-4-444-|

G---------------------------------------------------------------------|
D---------------------------------------------------------------------|
A-00-0-00-------------------------------00-0-00-0---------------------|
D---------00-0-00-0-22-2-00-0-44-4-44-4-----------00-0-00-0-22-2-00-0-|

2X
G---------------------------------------------------------------------------------|
D---------------------------------------------------------------------------------|
A---------------------00-0-00-0-00-0-00-0---------------------22-2-22-2-00-0-00-0-|
D-44-4-44-4-44-4-44-4---------------------22-2-22-2-22-2-22-2---------------------|

G----------------------------------------------------------------|
D-0~--------------------------------------------0~---------------|
A---------------------------00-0-00-0-22-2-22-2------------------|
D----2~-44-4-44-4-66-6-66-6------------------------2~-4~-4~----4-|

4X
G---------------------|
D---------------------|
A---------222-000---0-|
D-444-000---------66--|

3X
G----------------|
D----------------|
A-------22-00--0-|
D-44-00-------6--|

G----------------|
D----------------|
A-----2-0---0----|
D-4-0-----6----4-|

i guess its good enough.. correct me if you find mistakes..
  xxSID
Добавлено: 29.06.2012
Другие материалы по этой песне:
  • Аккорды и текст

Страница создана 29.06.2012
http://primanota.ru/comeback-kid/something-else-chords.htm
Привет, Гость.
Предлагаем пройти революционный курс по гитаре.
Подарок от PrimaNota.Ru, забирай!