PrimaNota.ru - самый крупный в мире бесплатный архив песенных текстов, аккордов, табулатур и нот


Comeback Kid - Something Less - текст песни, таба, видео

Регистрация Запомнить меня
Войти через:  Facebook Google Twitter Vk Yandex Mail.ru

Comeback Kid - Something Less - текст песни, таба, видео

Печатать
Просмотров: 142
Tuning: drop C# (d# A# F# C# G# C#)

/ - slide
~ - let ring
. - palm mute
X - mute string
b - bend

// text - comment
text - lyrics


************************************************************************************************

// 00:00 //

-----------------------------------------------------------------------------------------------|
-----------------------------------------------------------------------------------------------|
-15--15--15-15-15-15--15-15--15-15-15-15---15--15--15-15-15-15--15-15--15-15-15-15-------------|
-----------------------------------------------------------------------------------------------|
-13--13--13-13-13-13--13-13--13-13-13-13---13--13--13-13-13-13--13-13--13-13-13-13-------------|
-----------------------------------------------------------------------------------------------|


// 00:05 //

-----------------------------------------------------------------------------------------------| |
-----------------------------------------------------------------------------------------------| |
-15--15--15-15-15-15--15-15--15-15-14-14---15--15--15-15-15-15--15-15--15-15-14-14-------------| |
-----------------------------------------------------------------------------------------------| |
-13--13--13-13-13-13--13-13--13-13-12-12---13--13--13-13-13-13--13-13--13-13-12-12-------------| |
-----------------------------------------------------------------------------------------------| |
                                                                                                 |
-----------------------------------------------------------------------------------------------| |
-----------------------------------------------------------------------------------------------| |
-----------------------------------------------------------------------------------------------| |
-5---5---5--5--5--5---5--5---5--5--5--5----8---8---8--8--8--8---8--8---8--8--8--8--------------| |
-5---5---5--5--5--5---5--5---5--5--5--5----8---8---8--8--8--8---8--8---8--8--8--8--------------| |
-5---5---5--5--5--5---5--5---5--5--5--5----8---8---8--8--8--8---8--8---8--8--8--8--------------| |

-----------------------------------------------------------------------------------------------| |
-----------------------------------------------------------------------------------------------| |
-15--15--15-15-15-15--15-15--15-15-14-14---17--17-17-17-17-17--14-14-14--14-14-14--------------| |
-----------------------------------------------------------------------------------------------| |
-13--13--13-13-13-13--13-13--13-13-12-12---15--15-15-15-15-15--12-12-12--12-12-12--------------| |
-----------------------------------------------------------------------------------------------| |
                                                                                                 |
-----------------------------------------------------------------------------------------------| |
-----------------------------------------------------------------------------------------------| |
-----------------------------------------------------------------------------------------------| |
-1---1---1--1--1--1---1--1---1--1--1--1----3---3--3--3--3--3---0--0--0---0--0--0---------------| |
-1---1---1--1--1--1---1--1---1--1--1--1----3---3--3--3--3--3---0--0--0---0--0--0---------------| |
-1---1---1--1--1--1---1--1---1--1--1--1----3---3--3--3--3--3---0--0--0---0--0--0---------------| |


// 00:13 //

-----------------------------------------------------------------------------------------------| |
-----------------------------------------------------------------------------------------------| |
17/14/15-15-15-15-15--15-15--15-15-14-14---15--15--15-15-15-15--15-15--15-15-14-14-------------| |
-----------------------------------------------------------------------------------------------| |
15/12/13-13-13-13-13--13-13--13-13-12-12---13--13--13-13-13-13--13-13--13-13-12-12-------------| |
-----------------------------------------------------------------------------------------------| |
                                                                                                 |
-----------------------------------------------------------------------------------------------| |
-----------------------------------------------------------------------------------------------| |
-----------------------------------------------------------------------------------------------| |
-5---5---5--5--5--5---5--5---5--5--5--5----8---8---8--8--8--8---8--8---8--8--8--8--------------| |
-5---5---5--5--5--5---5--5---5--5--5--5----8---8---8--8--8--8---8--8---8--8--8--8--------------| |
-5---5---5--5--5--5---5--5---5--5--5--5----8---8---8--8--8--8---8--8---8--8--8--8--------------| |

-----------------------------------------------------------------------------------------------| |
-----------------------------------------------------------------------------------------------| |
-15--15--15-15-15-15--15-15--15-15-14-14---17--17-17-17-17-17--14-14-14--14-14-14--------------| |
-----------------------------------------------------------------------------------------------| |
-13--13--13-13-13-13--13-13--13-13-12-12---15--15-15-15-15-15--12-12-12--12-12-12--------------| |
-----------------------------------------------------------------------------------------------| |
                                                                                                 |
-----------------------------------------------------------------------------------------------| |
-----------------------------------------------------------------------------------------------| |
-----------------------------------------------------------------------------------------------| |
-1---1---1--1--1--1---1--1---1--1--1--1----3---3--3--3--3--3---0--0--0---0--0--0---------------| |
-1---1---1--1--1--1---1--1---1--1--1--1----3---3--3--3--3--3---0--0--0---0--0--0---------------| |
-1---1---1--1--1--1---1--1---1--1--1--1----3---3--3--3--3--3---0--0--0---0--0--0---------------| |


// 00:23 //

-----------------------------------------------------------------------------------------------| |
-----------------------------------------------------------------------------------------------| |
-----------------------------------------------------------------------------------------------| |
-5-5--5--5-5--8-8--8--8-8--1-1--1--1-1--3-3-3-0------------------------------------------------| |
-5-5--5--5-5--8-8--8--8-8--1-1--1--1-1--3-3-3-0------------------------------------------------| |
-5-5--5--5-5--8-8--8--8-8--1-1--1--1-1--3-3-3-0------------------------------------------------| |
                                                                                                 |
-----------------------------------------------------------------------------------------------| |
-----------------------------------------------------------------------------------------------| |
-----------------------------------------------------------------------------------------------| |
-5~~~-----------------------------------3-3-3-0------------------------------------------------| |
-5~~~-----------------------------------3-3-3-0------------------------------------------------| |
-5~~~-----------------------------------3-3-3-0------------------------------------------------| |


// 00:27 //

// Both guitars playing same part

Last night I thought I heard, 
heard the sound of hope.
I never knew what to expect, 
but still I had a goal.
-----------------------------------------------------------------------------------------------|
-----------------------------------------------------------------------------------------------|
-----------------------------------------------------------------------------------------------|
-5-5--5-5-5--8-8--8--8-8--1-1--1--1-1--3-3-0-0---5-5-5--5-5--8-8--8--8-8--1-1--1--1-1--3-3-0-0-|
-5-5--5-5-5--8-8--8--8-8--1-1--1--1-1--3-3-0-0---5-5-5--5-5--8-8--8--8-8--1-1--1--1-1--3-3-0-0-|
-5-5--5-5-5--8-8--8--8-8--1-1--1--1-1--3-3-0-0---5-5-5--5-5--8-8--8--8-8--1-1--1--1-1--3-3-0-0-|
                                                                                         .   .

And last night something fazed me.
Today things seems so clear.
The wait. The weight. The listening.
And everything's so clear.
-----------------------------------------------------------------------------------------------|
-----------------------------------------------------------------------------------------------|
-----------------------------------------------------------------------------------------------|
-5-5--5-5-5--8-8--8--8-8--1-1--1--1-1--3-3-0-0---5-5--5-5-5--8-8--8--8-8--1-1--1--1-1--3-3-0-0-|
-5-5--5-5-5--8-8--8--8-8--1-1--1--1-1--3-3-0-0---5-5--5-5-5--8-8--8--8-8--1-1--1--1-1--3-3-0-0-|
-5-5--5-5-5--8-8--8--8-8--1-1--1--1-1--3-3-0-0---5-5--5-5-5--8-8--8--8-8--1-1--1--1-1--3-3-0-0-|


// 00:46 //

I guess it's something less 
than what I hoped for.
It turned out something less, 
but you seemed so content.

I guess it's something less 
than what I hoped for.
It turned out something less, 
but you seemed so content with what you
-----------------------------------------------------------------------------------------------| | |
-----------------------------------------------------------------------------------------------| | |
-15--15--15-15-15-15--15-15--15-15-14-14---15--15--15-15-15-15--15-15--15-15-14-14-------------| | |
-----------------------------------------------------------------------------------------------| | |
-13--13--13-13-13-13--13-13--13-13-12-12---13--13--13-13-13-13--13-13--13-13-12-12-------------| | |
-----------------------------------------------------------------------------------------------| | |
                                                                                                 | |
-----------------------------------------------------------------------------------------------| | |
-----------------------------------------------------------------------------------------------| | |
-------------------------------------------8---8---8--8--8--8---8--8---8--8--8--8--------------| | |
-5---5---5--5--5--5---5--5---5--5--5--5----6---6---6--6--6--6---6--6---6--6--6--6--------------| | | 
-5---5---5--5--5--5---5--5---5--5--5--5----6---6---6--6--6--6---6--6---6--6--6--6--------------| | | 
-5---5---5--5--5--5---5--5---5--5--5--5--------------------------------------------------------| | |
                                                                                                   |
                                                                                                   | x2
                                                                                                   |
-----------------------------------------------------------------------------------------------| | |
-----------------------------------------------------------------------------------------------| | |
-15--15--15-15-15-15--15-15--15-15-14-14---17--17-17-17-17-17--14-14-14--14-14-14--------------| | | 
-----------------------------------------------------------------------------------------------| | |
-13--13--13-13-13-13--13-13--13-13-12-12---15--15-15-15-15-15--12-12-12--12-12-12--------------| | |
-----------------------------------------------------------------------------------------------| | |
                                                                                                 | |
-----------------------------------------------------------------------------------------------| | |
-----------------------------------------------------------------------------------------------| | |
-----------------------------------------------------------------------------------------------| | |
-8---8---8--8--8--8---8--8---8--8--8--8----8---8--8--8--8--8---8--8---8--8--8--8---------------| | |
-8---8---8--8--8--8---8--8---8--8--8--8----8---8--8--8--8--8---8--8---8--8--8--8---------------| | |
-8---8---8--8--8--8---8--8---8--8--8--8----8---8--8--8--8--8---8--8---8--8--8--8---------------| | |


// 01:04//

...have!

You're so content and all I want is more!
Now I think I'll never have,
-----------------------------------------------------------------------------------------------| |
-----------------------------------------------------------------------------------------------| |
-8~--------------------------------------------------------------------------------------------| |
-------------3-----5-5--5-5--5-7-7--7-7--7-8-8--8-8--8-10-10--10-10----------------------------| |
-6~----------3-----5-5--5-5--5-7-7--7-7--7-8-8--8-8--8-10-10--10-10----------------------------| |
-------------3-----5-5--5-5--5-7-7--7-7--7-8-8--8-8--8-10-10--10-10----------------------------| |
                                                                                                 |
//slightly bend 12's                                                                             |
                                                                                                 |
-----------------------------------------------------------------------------------------------| |
-----------------------------------------------------------------------------------------------| |
-8~--------------------------------------12-12-12-12-12-12-12-12-12----------------------------| |
-------------3-----5-5--5-5--5-5-5--5-5--------------------------------------------------------| |
-6~----------3-----5-5--5-5--5-5-5--5-5--------------------------------------------------------| |
-------------3-----5-5--5-5--5-5-5--5-5--------------------------------------------------------| |


// 01:13 //

// Both guitars playing same part

and I'll never see, and I'll never know.
-----------------------------------------------------------------------------------------------|
-----------------------------------------------------------------------------------------------|
-8~--------------------------------------------------------------------------------------------|
-------------3-----5~----------5~--------5~-------------5--------------------------------------|
-6~----------3-----5~----------5~--------5~-------------5--------------------------------------|
-------------3-----5~----------5~--------5~-------------5--------------------------------------|


// 01:28//

Don't set me back!
-----------------------------------------------------------------------------------------------| |
-----------------------------------------------------------------------------------------------| |
-----------------------------------------------------------------------------------------------| |
--------------------------------------5-5-5--0-0-0--10-10-10--8-8-8-7-7-8----------------------| |
--------------------------------------5-5-5--0-0-0--10-10-10--8-8-8-7-7-8----------------------| |
--------------------------------------5-5-5--0-0-0--10-10-10--8-8-8-7-7-8----------------------| |
                                                                                                 |
-----------------------------------------------------------------------------------------------| |
-----------------------------------------------------------------------------------------------| |
-----------------------------------------------------------------------------------------------| |
5-5-5--0-0-0--10-10-10--8-8-8-7-7-8---5-5-5--0-0-0--10-10-10--8-8-8-7-7-8----------------------| |
5-5-5--0-0-0--10-10-10--8-8-8-7-7-8---5-5-5--0-0-0--10-10-10--8-8-8-7-7-8----------------------| |
5-5-5--0-0-0--10-10-10--8-8-8-7-7-8---5-5-5--0-0-0--10-10-10--8-8-8-7-7-8----------------------| |


// 01:32 //

Make a way to break the fall.
I'm taking it from the start. (I'm taking!)
-----------------------------------------------------------------------------------------------| |
------------------------------------------------------------------------5*---------------------| |
------------------------------------------------------------------------5*---------------------| |
5-5-5--0-0-0--10-10-10--8-8-8-7-7-8---5-5-5--0-0-0--10-10-10--8-8-8-7-7-5*---------------------| |
5-5-5--0-0-0--10-10-10--8-8-8-7-7-8---5-5-5--0-0-0--10-10-10--8-8-8-7-7------------------------| |
5-5-5--0-0-0--10-10-10--8-8-8-7-7-8---5-5-5--0-0-0--10-10-10--8-8-8-7-7------------------------| |
                                                                    . .                          |
                                                                                                 |
-----------------------------------------------------------------------------------------------| |
-----------------------------------------------------------------------------------------------| |
-----------------------------------------------------------------------------------------------| |
5-5-5--0-0-0--10-10-10--8-8-8-7-7-8---5-5-5--0-0-0--10-10-10--8-8-8-7-7-8----------------------| |
5-5-5--0-0-0--10-10-10--8-8-8-7-7-8---5-5-5--0-0-0--10-10-10--8-8-8-7-7-8----------------------| |
5-5-5--0-0-0--10-10-10--8-8-8-7-7-8---5-5-5--0-0-0--10-10-10--8-8-8-7-7-8----------------------| |
                                                                    


// 01:38 // 

Make a way to break the fall.
I'm taking it from the start.
Don't set me back!
-----------------------------------------------------------------------------------------------|
-----------------------------------------------------------------------------------------------|
-----------------------------------------------------------------------------------------------|
5-5-5--0-0-0--10-10-10--8-8-8-7-7-8---5-5-5--0-0-0--10-10-10--8-8-8-7-7-8----------------------|
5-5-5--0-0-0--10-10-10--8-8-8-7-7-8---5-5-5--0-0-0--10-10-10--8-8-8-7-7-8----------------------|
5-5-5--0-0-0--10-10-10--8-8-8-7-7-8---5-5-5--0-0-0--10-10-10--8-8-8-7-7-8----------------------|
. . .  . . .  .  .  .   . . . . . .   . . .  . . .  .  .  .   . . . . . .


// 01:44 // 

Don't set me back!
Don't set me back!
Don't set me back!
Don't set me back!
-----------------------------------------------------------------------------------------------| |
-----------------------------------------------------------------------------------------------| |
------------------------------------------------12~-12~-12~--12~12~12~--12~-12~-12~--12~12~12~-| |
5~--0~--10~--8~-7~-8~---5~--0~--10~--8~-7~-8~--------------------------------------------------| |
5~--0~--10~--8~-7~-8~---5~--0~--10~--8~-7~-8~---10~-10~-10~--10~10~10~--10~-10~-10~--10~10~10~-| |
5~--0~--10~--8~-7~-8~---5~--0~--10~--8~-7~-8~--------------------------------------------------| |
                                                                                                 |
-----------------------------------------------------------------------------------------------| |
-----------------------------------------------------------------------------------------------| |
-----------------------------------------------------------------------------------------------| |
5~--0~--10~--8~-7~-8~---5~--0~--10~--8~-7~-8~---5~--0~--10~--8~-7~-8~---5~--0~--10~--8~-7~-8~--| |
5~--0~--10~--8~-7~-8~---5~--0~--10~--8~-7~-8~---5~--0~--10~--8~-7~-8~---5~--0~--10~--8~-7~-8~--| |
5~--0~--10~--8~-7~-8~---5~--0~--10~--8~-7~-8~---5~--0~--10~--8~-7~-8~---5~--0~--10~--8~-7~-8~--| |
 

// 01:54 //

-----------------------------------------------------------------------------------------------| |
-----------------------------------------------------------------------------------------------| |
12~-/0-----------------------------------------------------------------------------------------| |
-----------------------------------------------------------------------------------------------| |
10~-/0-----------------------------------------------------------------------------------------| |
-----------------------------------------------------------------------------------------------| |
                                                                                                 |
-----------------------------------------------------------------------------------------------| |
-----------------------------------------------------------------------------------------------| |
-----------------------------------------------------------------------------------------------| |
5~--/0-----------------------------------------------------------------------------------------| |
5~--/0-----------------------------------------------------------------------------------------| |
5~--/0-----------------------------------------------------------------------------------------| |

 
Добавлено: 07.10.2015
Вам также может быть интересно:
Другие материалы по этой песне:
  • Аккорды и текст

Страница создана 13.03.2012
http://primanota.ru/comeback-kid/something-less-chords.htm
Привет, Гость.
Предлагаем пройти революционный курс по гитаре.
Подарок от PrimaNota.Ru, забирай!