PrimaNota.ru - самый крупный в мире бесплатный архив песенных текстов, аккордов, табулатур и нот


Comeback Kid - Should Know Better - таба, видео

Регистрация Запомнить меня
Войти через:  Facebook Google Twitter Vk Yandex Mail.ru

Comeback Kid - Should Know Better - таба, видео

Печатать
Просмотров: 145
-----------------------------------|
Comeback Kid - Should Know Better--|
Tabbed by: vppark2
E-mail: linkinp751@gmail.com

Tuning: Drop C#

D#|-----------------------------|
A#|-----------------------8888--|
F#|---------------445555-06666--|
C#|----00223333---223333-06666--|
G#|----00223333---223333-06666--|
C#|----00223333/--223333-06666--|
       ........

   Chorus
D#|------------------------------------------|
A#|7---13----14----11----7-------------------|
F#|8---14----15----12----8-------3-----------|
C#|x-x8-x-x8--x-x8--x-x8-x-x8-023120--66666--|
G#|6---12--- 13----10----6----023-20--66666--|
C#|---------------------------023-20--66666--|

Pickscape the low C# string then literally just repeat everything all over again. Short, but sweet ol' CbK.

************************************

| /   slide up
| \   slide down
| h   hammer-on
| p   pull-off
| ~   vibrato
| +   harmonic
| x   Mute note
| b   Bend
| pb  Pre-bend
| br  Bend release
| pbr Pre-bend release
| brb Bend release bend

************************************
Добавлено: 07.10.2015
Другие материалы по этой песне:
  • Аккорды и текст

Страница создана 07.10.2015
http://primanota.ru/comeback-kid/should-know-better-chords.htm
Привет, Гость.
Предлагаем пройти революционный курс по гитаре.
Подарок от PrimaNota.Ru, забирай!