PrimaNota.ru - самый крупный в мире бесплатный архив песенных текстов, аккордов, табулатур и нот


Cold - The Park - текст песни, таба, видео

Регистрация Запомнить меня
Войти через:  Facebook Google Twitter Vk Yandex Mail.ru

Cold - The Park - текст песни, таба, видео

Печатать
Просмотров: 185
Artist: Cold
Title: The Park
Album: Superfiction

Tuning: (low to high) C F Bb Eb G C

Tabbed by: FireReaverX


Intro / Main riff
C |----------------------------------------------------------------------|
G |----------------------------------------------------------------------|
Eb|----------------------------------------------------------------------|
Bb|----------------------------------------------------------------------| 2x
F |----------------------------------------------------------------------|
C |-3---------------3---3---3-3-3333334---------------6---6---6-8-888866-|


Verse
C |----------------------------------------------------------------------|
G |----------------------------------------------------------------------|
Eb|-12v-------------------------------12v-----------------------12b------|
Bb|----------------------------------------------------------------------|
F |----------------------------------------------------------------------|
C |----------------------------------------------------------------------|

C |----------------------------------------------------------------------|
G |----------------------------------------------------------------------|
Eb|-12v-------------------------12\---5v------------------------5/-------|
Bb|----------------------------------------------------------------------|
F |----------------------------------------------------------------------|
C |----------------------------------------------------------------------|

C |----------------------------------------------------------------------|
G |----------------------------------------------------------------------|
Eb|-12v-------------------------------12v-----------------------12b------|
Bb|----------------------------------------------------------------------|
F |----------------------------------------------------------------------|
C |----------------------------------------------------------------------|

C |----------------------------------------------------------------------|
G |----------------------------------------------------------------------|
Eb|-12v-------------------------12\---5v------------------------/7v------|
Bb|----------------------------------------------------------------------|
F |----------------------------------------------------------------------|
C |----------------------------------------------------------------------|


Chorus
C |-----------------------------------------------------------------|
G |-----------------------------------------------------------------|
Eb|-8---8---7---7-------------------8---8---7---7---5---5-----------|
Bb|-8---8---7---7---6---6---6---6---8---8---7---7---5---5---8---8---| 2x
F |-6---6---5---5---6---6---6---6---6---6---5---5---3---3---8---8---|
C |-----------------4---4---4---4---------------------------6---6---|


Verse / Main riff
Chorus


C |-------------3-------------------------------6-------------------|
G |---------------4-------------------------------6-----------------|
Eb|-5---------------5---------------8---------------8---------------|
Bb|-5-------------------------------8-------------------------------|
F |-3-------------------------------6-------------------------------|
C |-----------------------------------------------------------------|

C |-------------3---------------------------------------------------|
G |---------------4-------------------------------------------------|
Eb|-5---------------5---------------8-----------10------------------|
Bb|-5-------------------------------8-----------10------------------|
F |-3-------------------------------6------------8------------------|
C |-----------------------------------------------------------------|


Chorus


| /  slide up
| \  slide down
| b  bend
| h  hammer-on
| p  pull-off
| v  vibrato
| x  mute string
| .  palm mute
===============================================================================
Добавлено: 18.04.2012
Другие материалы по этой песне:
  • Аккорды и текст

Страница создана 18.04.2012
http://primanota.ru/cold/the-park-chords.htm
Привет, Гость.
Предлагаем пройти революционный курс по гитаре.
Подарок от PrimaNota.Ru, забирай!