PrimaNota.ru - самый крупный в мире бесплатный архив песенных текстов, аккордов, табулатур и нот


Cold - Came All The Way - текст песни, таба, видео

Регистрация Запомнить меня
Войти через:  Facebook Google Twitter Vk Yandex Mail.ru

Cold - Came All The Way - текст песни, таба, видео

Печатать
Просмотров: 191
Artist: Cold
Song: Came All The Way
Album: Psi-Ops Sountrack (2004)
Tuning: C Satndard (down 2 step) - C G D# A F C - low to high.

Intro (Bass)
|------------------------------------------------|
|------------------------------------------------|
|------------------------------------------------|
|-3-5--5-3--3-5-6--6-3--3-3-5--5-3--3-8-8--8-6-6-|

Verse 1 (Guitar 1)
|------------------------------------------------------------------------------------|
|------------------------------------------------------------------------------------|
|------------------------------------------------------------------------------------|
|------------------------------------------------------------------------------------|
|-5-7--7--x-x-5-x-x-5--7-8--8--x-x-5-x-x-5--5-7--7--x-x-5-x-x-5--10-10-10-10-8-8-8-8-|
|-3-5--5--x-x-3-x-x-3--5-6--6--x-x-3-x-x-3--3-5--5--x-x-3-x-x-3--8--8--8--8--6-6-6-6-|

Verse 1 (Guitar 2)
|---10-------------------10------------10------------|
|-8----8--8-10-11-10---8----8--8-10-11----11-10-8-10-|
|----------------------------------------------------|
|----------------------------------------------------|
|----------------------------------------------------|
|----------------------------------------------------|

|---10----------------------|
|-8----10-8-10-8-10-8-11-10-|
|---------------------------|
|---------------------------|
|---------------------------|
|---------------------------|

Chorus
|--------------------------------------|
|--------------------------------------|
|-7-7-x-x--5--5-5-5--2-2-x-x--3--3-3-3-|
|-7-7-x-x--5--5-5-5--2-2-x-x--3--3-3-3-|
|-5-5-x-x--3--3-3-3--0-0-x-x--1--1-1-1-|
|--------------------------------------|

Verse 2 (Guitar 2)
|---10----------------------|---10----------------|
|-8----10-8-10-8-10-8-11-10-|-8----10-8--8-8-10-8-|
|---------------------------|---------------------|
|---------------------------|---------------------|
|---------------------------|---------------------|
|---------------------------|---------------------|

Bridge
|-------------------------------------|
|-------------------------------------|
|-----2------2-2^---------------------|
|-2-2----2-2-------5--5-5-5--3--3-3-3-|
|-0-0----0-0-------5--5-5-5--3--3-3-3-|
|------------------3--3-3-3--1--1-1-1-|

Outro
|------------------------------------|-----------------------------------|
|-1/3-3-3-3/5-5-555555-5/6-6-6-6\5-5-|-1/3-3-3-3/5-5-555555-5/6-6-6-6/8^-|
|------------------------------------|-----------------------------------|
|------------------------------------|-----------------------------------|
|------------------------------------|-----------------------------------|
|------------------------------------|-----------------------------------|

|------------------------------------|----------------------------------|
|-1/3-3-3-3/5-5-555555-5/6-6-6-6\5-5-|-1/3-3-3-3/5-5-555555-5/6-6-6-6/8-|
|------------------------------------|----------------------------------|
|------------------------------------|----------------------------------|
|------------------------------------|----------------------------------|
|------------------------------------|----------------------------------|

Enjoy) 
WickedXer0
Добавлено: 22.07.2013
Другие материалы по этой песне:
  • Аккорды и текст

Страница создана 18.05.2012
http://primanota.ru/cold/came-all-the-way-chords.htm
Привет, Гость.
Предлагаем пройти революционный курс по гитаре.
Подарок от PrimaNota.Ru, забирай!