PrimaNota.ru - самый крупный в мире бесплатный архив песенных текстов, аккордов, табулатур и нот


Cold - Welcome To My World - текст песни, таба, видео

Регистрация Запомнить меня
Войти через:  Facebook Google Twitter Vk Yandex Mail.ru

Cold - Welcome To My World - текст песни, таба, видео

Печатать
Просмотров: 285
Уроки эстрадного вокала в Санкт-Петербурге
-----------------------------------------------------------------------------
                        WELCOME TO MY WORLD - COLD
-----------------------------------------------------------------------------
Tabbed by:John Orgler / coldfan27
Email:coldfan27@yahoo.com

Hey coldfan27 here again giving you another cold song; can't wait till some more songs
out on the net. This song was written for Scooters Daughter because she seems to like to
his songs, so he wrote this one for her.
Wonderful song gotta love their new stuff.

Sorry I have not entered the lyrics for this song for some of them are kind of hard to
Scooter is very infamous for that=)

Tuning:C-F-A#-D#-G-C

Guitar 1 Intro/ Verse
e|--------------------------------------------------------------------------|
B|--------------------------------------------------------------------------|
G|---------------------------------------------------6-6-6-6-6-6-6-6-6-6-6-6|
D|---------------------------------------------------7-7-7-7-7-7-7-7-7-7-7-7|
A|-3-3-3-3-3-3-3-3-3-3-3-3---------------------------7-7-7-7-7-7-7-7-7-7-7-7|
E|--------------------------3-3-3-3-3-3-3-3-3-3-3-3--5-5-5-5-5-5-5-5-5-5-5-5|

e|--------------------------------------------------------------------------|
B|--------------------------------------------------------------------------|
G|-2-2-2-2-2-2-2-2-2-2-2-2--------------------------------------------------|
D|-3-3-3-3-3-3-3-3-3-3-3-3--------------------------------------------------|
A|-3-3-3-3-3-3-3-3-3-3-3-3--------------------------------------------------|
E|-1-1-1-1-1-1-1-1-1-1-1-1--------------------------------------------------|

Guitar 2 Intro / Verse
e|--------------------------------------------------------------------------|
B|--------------------------------------------------------------------------|
G|-5-5-5-5-5-5-5-5-5-5-5-5--4-4-4-4-4-4-4-4-4-4-4-4--6-6-6-6-6-6-6-6-6-6-6-6|
D|-5-5-5-5-5-5-5-5-5-5-5-5--5-5-5-5-5-5-5-5-5-5-5-5--7-7-7-7-7-7-7-7-7-7-7-7|
A|-3-3-3-3-3-3-3-3-3-3-3-3--5-5-5-5-5-5-5-5-5-5-5-5--7-7-7-7-7-7-7-7-7-7-7-7|
E|-3-3-3-3-3-3-3-3-3-3-3-3--3-3-3-3-3-3-3-3-3-3-3-3--5-5-5-5-5-5-5-5-5-5-5-5|

e|--------------------------------------------------------------------------|
B|--------------------------------------------------------------------------|
G|-2-2-2-2-2-2-2-2-2-2-2-2--------------------------------------------------|
D|-3-3-3-3-3-3-3-3-3-3-3-3--------------------------------------------------|
A|-3-3-3-3-3-3-3-3-3-3-3-3--------------------------------------------------|
E|-1-1-1-1-1-1-1-1-1-1-1-1--------------------------------------------------|

Guitar 1 Chorus (2x)
e|--------------------------------------------------------------------------|
B|--------------------------------------------------------------------------|
G|-6-6-6-6-6-6-6-6-6-6-6-6--4-4-4-4-4-4-4-4-4-4-4-4--2-2-2-2-2-2-2-2-2-2-2-2|
D|-7-7-7-7-7-7-7-7-7-7-7-7--5-5-5-5-5-5-5-5-5-5-5-5--3-3-3-3-3-3-3-3-3-3-3-3|
A|-7-7-7-7-7-7-7-7-7-7-7-7--5-5-5-5-5-5-5-5-5-5-5-5--3-3-3-3-3-3-3-3-3-3-3-3|
E|-5-5-5-5-5-5-5-5-5-5-5-5--3-3-3-3-3-3-3-3-3-3-3-3--1-1-1-1-1-1-1-1-1-1-1-1|

e|--------------------------------------------------------------------------|
B|-----------------------------------second time round end with this--------|
G|-0-0-0-0-0-0-0-0-0-0-0-0-----------4-4-4-4-4-4-4-4-4-4-4-4-4-4-4----------|
D|-2-2-2-2-2-2-2-2-2-2-2-2-----------5-5-5-5-5-5-5-5-5-5-5-5-5-5-5----------|
A|-2-2-2-2-2-2-2-2-2-2-2-2-----------5-5-5-5-5-5-5-5-5-5-5-5-5-5-5----------|
E|-0-0-0-0-0-0-0-0-0-0-0-0-----------3-3-3-3-3-3-3-3-3-3-3-3-3-3-3----------|

Guitar 2 Chorus
e|--------------------------------------------------------------------------|
B|-13-13-13-13-13-13-13-13-13-13-13-13-12-12-12-12-12-12-12-12-12-12-12-12--|
G|--------------------------------------------------------------------------|
D|------play this 4x during the chorus--------------------------------------|
A|--------------------------------------------------------------------------|
E|--------------------------------------------------------------------------|

Guitar 1 (During Interlude)
e|--------------------------------------------------------------------------|
B|--------------------------------------------------------------------------|
G|-5-5-5-5-5-5-5-5-5-5-5-5--4-4-4-4-4-4-4-4-4-4-4-4--6-6-6-6-6-6-6-6-6-6-6-6|
D|-5-5-5-5-5-5-5-5-5-5-5-5--5-5-5-5-5-5-5-5-5-5-5-5--7-7-7-7-7-7-7-7-7-7-7-7|
A|-3-3-3-3-3-3-3-3-3-3-3-3--5-5-5-5-5-5-5-5-5-5-5-5--7-7-7-7-7-7-7-7-7-7-7-7|
E|-3-3-3-3-3-3-3-3-3-3-3-3--3-3-3-3-3-3-3-3-3-3-3-3--5-5-5-5-5-5-5-5-5-5-5-5|

e|--------------------------------------------------------------------------|
B|--------------------------------------------------------------------------|
G|-2-2-2-2-2-2-2-2-2-2-2-2--------------------------------------------------|
D|-3-3-3-3-3-3-3-3-3-3-3-3--------------------------------------------------|
A|-3-3-3-3-3-3-3-3-3-3-3-3--------------------------------------------------|
E|-1-1-1-1-1-1-1-1-1-1-1-1--------------------------------------------------|

Guitar 2 Interlude
e|--12~---------------------------------------------------------------------|
B|-----------12~------13~------12~\8~---------------------------------------|
G|--------------------------------------------------------------------------|
D|--------------------------------------------------------------------------|
A|--------------------------------------------------------------------------|
E|--------------------------------------------------------------------------|

Guitar 1
Solo
e|--------------------------------------------------------------------------|
B|--------------------------------------------------------------------------|
G|--------------------------------------------------------------------------|
D|-------------------------------------------------------------------10-9---|
A|-12-121212-12-12-12-12-121212-12-12-12/15\14-8-888-8-8-8-8-888-8-8--------|
E|--------------------------------------------------------------------------|

e|----------------------------------------------------------------------------|
B|----------------------------------------------------------------------------|
G|----------------------------------------------------------------------------|
D|-------------------------15-151515-17-171717-14-141414-15-151515--15~-------|
A|-10-101010-10-10-10-10---15-151515-17-171717-14-141414-15-151515--15~-------|
E|----------------------------------------------------------------------------|
         *use volume swell<---------------------------------------------------|
Guitar 2  outro
e|--------------------------------------------------------------------------|
B|-13-13-13-13-13-13-13-13-13-13-13-13-/-15~~~------------------------------|
G|--------------------------------------------------------------------------|
D|--play same as verse except at end of measure add this--------------------|
A|--------------------------------------------------------------------------|
E|--------------------------------------------------------------------------|
 { after the last measure above; use chorus as outro}

IF YOU HAVE ANY QUESTIONS ABOUT THIS TAB OR WOULD LIKE TO REQUEST ONE SEND ME A MESSAGE 
MY PROFILE.

ENJOY!!!


************************************

| /   slide up
| \   slide down
| h   hammer-on
| p   pull-off
| ~   vibrato
| +   harmonic
| x   Mute note
| b   Bend
| pb  Pre-bend
| br  Bend release
| pbr Pre-bend release
| brb Bend release bend

************************************
Добавлено: 14.03.2012
Другие материалы по этой песне:
  • Аккорды и текст

Страница создана 14.03.2012
http://primanota.ru/cold/welcome-to-my-world-chords.htm
Привет, Гость.
Предлагаем пройти революционный курс по гитаре.
Подарок от PrimaNota.Ru, забирай!