PrimaNota.ru - самый крупный в мире бесплатный архив песенных текстов, аккордов, табулатур и нот


Cold - Whatever You Became - текст песни, таба, бас-таба, видео

Регистрация Запомнить меня
Войти через:  Facebook Google Twitter Vk Yandex Mail.ru

Cold - Whatever You Became - текст песни, таба, бас-таба, видео

Печатать
Просмотров: 244
-----------------------------------------------------------------------------
                             Whatever You Became - COLD
-----------------------------------------------------------------------------
Tabbed by:John Orgler / coldfan
Email:coldfan27@yahoo.com

Tuning:Drop Down Two Steps C-F-A#-D#-G-C

I was looking for this song to learn how to play it and to my surprise there was not a 
entry for this song. Ultimate-Guitar.com this is my gift to you for having so many 
in bands to choose from and keeping this site alive for the past years.

I tip my hat to you


-Lyrics-

What ever you became
Blame it on my fame
I'm always away from you
Sold my life for a song
What ever you killed
The blood got on my face
See it took over you
And your minds nearly gone

And I can't change my ways
Sorry its my fault
I wasn't there to see
Whatever you became
Whatever you became

Whatever you became
You blame it on blind faith
Can't turn away from you
Whats my life if your gone
Whatever you feel
I take it on my stage
I sing to the world for you
And I'm always alone

And I can't change my ways
Sorry its my fault
I wasn't there to see
Whatever you became
Whatever you became

I can't see it all
Your so far away
I can't take this anymore
I can't live until i see your face
I can't see it all
Your so far away
I can't take this anymore
I can't live until i see your face

And I can't change my ways
Sorry its my fault
I wasn't there to see
Whatever you became
Whatever you became

Something's gone away
You've taken this from me
Until I see your face
I'm slipping away

verse
Guitar 1 (intro and verse effects added are Distortion with Delay)
e|--------------------------------------------------------------------------|
B|-----------8-----------------8-------------------8-------------------8----|
G|-----9--------9-9------9--------9-9-------9---------9-9-------9---------9-|
D|--7-----7-----------7-----7-----------------------------------------------|
A|--------------------------------------10-----10-----------10-----10-------|
E|--------------------------------------------------------------------------|

e|--------------------------------------------------------------------------|
B|-------------8----------------8------------------8---------------------8--|
G|-9-----9--------9-9-----9--------9-9------9---------9-9------9------9-----|
D|--------------------------------------------------------------------------|
A|----8-----8----------8-----8----------10-----10----------10-----10--------|
E|--------------------------------------------------------------------------|

e|--------------------------------------------------------------------------|
B|--8-----8-----8-----------------------------------------------------------|
G|-----9-----9-----9--------------------------------------------------------|
D|--------------------------------------------------------------------------|
A|--------------------------------------------------------------------------|
E|--------------------------------------------------------------------------|

intro and verse
Guitar 2 (it was a little tough getting through the delay but i think this is it)
e|--------------------------------------------------------------------------|
B|--------------------------------------------------------------------------|
G|-99999999-9h10---1010101010101010-12p10------------------------9-9-9-9-12-|
D|------------------------------------------88888888-8h9--9p8---------------|
A|--------------------------------------------------------------------------|
E|--------------------------------------------------------------------------|

e|--------------------------------------------------------------------------|
B|--------------------------------------------------------------------------|
G|-12-12-12-10-10-10-10-9-9-9-9-10-10-10-10---------------------------------|
D|--------------------------------------------------------------------------|
A|--------------------------------------------------------------------------|
E|--------------------------------------------------------------------------|

Guitar 1
Chorus x
e|--------------------------------------------------------------------------|
B|--------------------------------------------------------------------------|
G|--77--7777--99--9999--1010--10101010--12-12--1212------77--7777--99--9999-|
D|--77--7777--99--9999--1010--10101010--12-12--1212------77--7777--99--9999-|
A|--55--5555--77--7777---8-8---8-8-8-8--10-10--1010------55--5555--77--7777-|
E|--------------------------------------------------------------------------|

e|--------------------------------------------------------------------------|
B|--------------------------------------------------------------------------|
G|-1010--10101010--1212-----------------------------------------------------|
D|-1010--10101010--1212-----------------------------------------------------|
A|--8-8---8-8-8-8--1010-----------------------------------------------------|
E|--------------------------------------------------------------------------|

e|------------(5)------------------------(5)--------------------------------|
B|-------(7)-------(5)-5b6r5--------(7)-------(5)--5b6r5-----(7)---(7)------|
G|--(7)------------------------(7)------------------------(7)---(7)---(7)---|
D|--------------------------------------------------------------------------|
A|--------------------------------------------------------------------------|
E|--------------------------------------------------------------------------|

Bridge/Solo
e|--------------------------------------------------------------------------|
B|-------------10~~-------------------------------10~~------5/7\5/8\7/10/15-|
G|--12~~--11~~-------12~~--11~~--9~~--12~~--11~~-----12--11-----------------|
D|--------------------------------------------------------------------------|
A|--------------------------------------------------------------------------|
E|--------------------------------------------------------------------------|


e|--------------------------------------------------------------------------|
B|-----(7)br(7)-(5)------(7)------------(7)---------------------------------|
G|--(7)---------------(7)-----(5)---(7)----(5)br(5)-------------------------|
D|--------------------------------------------------------------------------|
A|--------------------------------------------------------------------------|
E|--------------------------------------------------------------------------|

************************************

| /   slide up
| \   slide down
| h   hammer-on
| p   pull-off
| ~   vibrato
| +   harmonic
| x   Mute note
| b   Bend
| pb  Pre-bend
| br  Bend release
| pbr Pre-bend release
| brb Bend release bend

************************************
Добавлено: 10.07.2012
Другие материалы по этой песне:
  • Аккорды и текст

Страница создана 05.03.2012
http://primanota.ru/cold/whatever-you-became-chords.htm
Привет, Гость.
Предлагаем пройти революционный курс по гитаре.
Подарок от PrimaNota.Ru, забирай!