PrimaNota.ru - самый крупный в мире бесплатный архив песенных текстов, аккордов, табулатур и нот


Clutch - Smoke Banshee - текст песни, таба, видео

Регистрация Запомнить меня
Войти через:  Facebook Google Twitter Vk Yandex Mail.ru

Clutch - Smoke Banshee - текст песни, таба, видео

Печатать
Просмотров: 158
Tabbed by Keith S. Byers


     I don't know why Neil uses his neck pickup most of the time, but it does get
  a pretty thick tone, so dial it in.  For those of you lucky enough to have a Les
  Paul, put the toggle switch in the "Rhythm" position for maximum stun-gun denseness.

   Intro:


   E---------------------------------------------------|
   B---------------------------------------------------|
   G---------------------------------------------------|
   D--7---9---7---------7--9--7-----7-7---9----7-9--7--|
   A--5---9---5---------5--9--5-----5-5---9----7-9--7--|
   E--5---7---5---------5--7--5-----5-5---7----5-7--5--|
                  * Neil Muttering
   Main Riff:
   4X
   E-----------------------------------------------------------------------------|
   B--------7-------7--9--7------------------------------------------------------|
   G--------7---9---7--9--7------------------------------------------------------|
   D--9--9------9------------9--7----------------9--(9)---------12----9--(9)-----|
   A--9--9-------------------------9/------------9--(9)---------12----9--(9)-----|
   E--7--7---------------------------------------7--(7)---------10----7--(7)-----|

   Outro Verse Riff:

   E--------------------------------------|
   B--------------------------------------|
   G--------------------------------------|
   D---9-9-9-9---12--9--9-9-9---7/--9-9---|
   A---9-9-9-9---12--9--9-9-9---7/--9-9---|
   E---7-7-7-7---10--7--7-7-7---5/--7-7---|

   Solo noodling riff:

   E---------------------------------|
   B------7--9p--7--9b---------------|
   G--9---7--9p--7--9b---------------|
   D--9------------------------------|
   A---------------------------------|
   E---------------------------------|
                    *Bend and release
Добавлено: 22.02.2012
Другие материалы по этой песне:
  • Аккорды и текст

Страница создана 22.02.2012
http://primanota.ru/clutch/smoke-banshee-chords.htm
Привет, Гость.
Предлагаем пройти революционный курс по гитаре.
Подарок от PrimaNota.Ru, забирай!