PrimaNota.ru - самый крупный в мире бесплатный архив песенных текстов, аккордов, табулатур и нот


Clutch - Brazenhead - текст песни, таба, бас-таба, видео

Регистрация Запомнить меня
Войти через:  Facebook Google Twitter Vk Yandex Mail.ru

Clutch - Brazenhead - текст песни, таба, бас-таба, видео

Печатать
Просмотров: 196
Авторы: Clutch

Again, you gotta dial in that fuzzy space-rock tone and it might help to switch to the neck pickup for 
thickness.  You might also employ a wah if you have one to get your funk on.  This is another demo tune 
the now renamed album "Pure Rock Fury."


   Intro:


   E-------------------------------|
   B-------------------------------|
   G--------------------2--(2)-----|
   D--------------------2--(2)-----|
   A--0---(0)--(0)------0--(0)-----|
   E-------------------------------|

   Main Theme riff:

   E-------------------------------------------|
   B-------------------------------------------|
   G-------------------------------------------|
   D--5-5---------------------------5/--7--5---|
   A--3-3---5--5---5-5--5---5-7-5---3/--5--3---|
   E--------3--7---3-3--7---3-5-3--------------|

   Tremolo pick riff:

   E------------------------------------------------------------------|
   B------------------------------------------------------------------|
   G------------------------------------------------------------------|
   D------------------------------------------------------------------|
   A-----------------------------------------------15-15--------15-15-|                         
   E-17//-----15---17//--*----5//----5/----12-12--------12-12---------|

   E-------------------------------------|
   B-------------------------------------|
   G-------------------------------------|
   D-------------------------------------|
   A-------15-15------15-15----------15/-|
   E-12-12-------12-12------12-12-12-----|

   Funky wah bride riff:

   E----------------------------------------------------------------------------|
   B--10----------10---------10-----10----------10-----------13-13-13-13-13-13--|
   G--9--x-x-x-x--9--x-x-x-x-9-x-x--9--x-x-x-x--9--x-x-x-----12-12-12-12-12-12--|
   D--7--x-x-x-x--7--x-x-x-x-7-x-x--7--x-x-x-x--7--x-x-x------------------------|
   A--0--x-x-x-x--0--x-x-x-x-0-x-x--0--x-x-x-x--0--x-x-x------------------------|
   E----------------------------------------------------------------------------|

   The outro solo is just basically noodling in A Pentatonic minor.  Enjoy.
Добавлено: 03.04.2012
Другие материалы по этой песне:
  • Аккорды и текст

Страница создана 03.04.2012
http://primanota.ru/clutch/brazenhead-chords.htm
Привет, Гость.
Предлагаем пройти революционный курс по гитаре.
Подарок от PrimaNota.Ru, забирай!