PrimaNota.ru - самый крупный в мире бесплатный архив песенных текстов, аккордов, табулатур и нот


Clapton, Eric - Futher On Up The Road - бас-таба, видео

Регистрация Запомнить меня
Войти через:  Facebook Google Twitter Vk Yandex Mail.ru

Clapton, Eric - Futher On Up The Road - бас-таба, видео

Печатать
Просмотров: 82
Eric Clapton
Further on up the road
(Long version)

Bass Tab


Tuning : EADG
Tempo: 139 bpm 
Key signature: G

Intro: 00:03  
G|--------------------||--------------------|-
D|---------2-5-2------||---------2--5-3-2---|-
A|---2-2-5-------5-2--||---2-2-5----------5-|- 
E|-3------------------||-3------------------|-

G|---------2-5-2------||--------------------|-
D|---2-2-5-------5-2--||---------2-5-2------|- 
A|-3------------------||---2-2-5-------5-2--|-
E|--------------------||-3------------------|-

G|---------4-||---------2-||------------|------||
D|---4-4-7---||---2-2-5---||---------2--|-5.---||
A|-5---------||-3---------||---2-2-5----|------||
E|-----------||-----------||-3----------|------||

... part 2: 00:25
G|-----------||-----------||--------------------|-
D|---------2-||---------2-||---------2--5-3-2---|-
A|---2-2-5---||---2-2-5---||---2-2-5----------5-|-
E|\3---------||-3---------||-3------------------|-

G|---------2-||---------2-||--------------------|-
D|---2-2-5---||---2-2-5---||---------2-5-2------|-
A|-3---------||-3---------||---2-2-5-------5-2--|-
E|-----------||-----------||-3------------------|-

G|---------4-||---------2-||------------|------||
D|---4-4-7---||---2-2-5---||---------2--|------||
A|-5---------||-3---------||---2-2-5----|------||
E|-----------||-----------||-3----------|-3.---||


Verse1: 00:44
G|-----------||-----------||--------------------|-
D|---------2-||---------2-||---------2--5-3-2---|-
A|---2-2-5---||---2-2-5---||---2-2-5----------5-|-
E|\3---------||-3---------||-3------------------|-
Further on up the road someone's gonna hurt you like you hurt me
G|---------2-||---------2-||--------------------|-
D|---2-2-5---||---2-2-5---||---------2-5-2------|-
A|-3---------||-3---------||---2-2-5-------5-2--|-
E|-----------||-----------||-3------------------|-
Further on up the road someone's gonna hurt you like you hurt me
G|---------4-||---------2-||-----------||-----------|-
D|---4-4-7---||---2-2-5---||---------2-||-----------|-
A|-5---------||-3---------||---2-2-5---||-----------|-
E|-----------||-----------||-3---------||-3.--------|-
Further on up the road, baby, just you wait and see                 


Verse2: 01:06
G|-----------||-----------||--------------------|-
D|---------2-||---------2-||---------2--5-3-2---|-
A|---2-2-5---||---2-2-5---||---2-2-5----------5-|-
E|\3---------||-3---------||-3------------------|-
You gotta reap just what you sow; that old saying is true
G|---------2-||---------2-||--------------------|-
D|---2-2-5---||---2-2-5---||---------2-5-2------|-
A|-3---------||-3---------||---2-2-5-------5-2--|-
E|-----------||-----------||-3------------------|-
You gotta reap just what you sow; that old saying is true
G|---------4-||---------2-||-----------||-----------|-
D|---4-4-7---||---2-2-5---||---------2-||-----------|-
A|-5---------||-3---------||---2-2-5---||-----------|-
E|-----------||-----------||-3---------||-3.--------|-
Just like you mistreat someone, someone's gonna mistreat you


Verse3: 01:28
G|-----------||-----------||-----------||-----------|-
D|-----------||-----------||-----------||-----------|-
A|-----1r-3--||-----1r-3--||-----1r-3--||-----1r-3--|-
E|-3-3-------||-3-3-------||-3-3-------||-3-3-------|-
You been laughing, pretty baby, someday you're gonna be crying
G|-----------||-----------||-----------||-----------|-
D|-----1r-3--||-----1r-3--||-----------||-----------|-
A|-3-3-------||-3-3-------||-----1r-3--||-----1r-3--|-
E|-----------||-----------||-3-3-------||-3-3-------|-
You been laughing, pretty baby, someday you're gonna be crying
G|-----------||-----------||-----------||-----------||
D|-----3r-5--||-----1r-3--||-----------||-----------||
A|-5-5-------||-3-3-------||-----1r-3--||-----------||
E|-----------||-----------||-3-3-------||-3.--------||
Further on up the road you'll find out I wasn't lying


Instrumental: 01:49 
Part1: 
G|------------------------||--------------------|-
D|---------2--5-3-2-------||---------2--5-3-2---|-
A|---2-2-5----------5-----||---2-2-5----------5-|-
E|-3----------------------||-3------------------|-

G|---------2--5-3-2-------||--------------------|-
D|---2-2-5----------5-----||---------2--5-3-2---|-
A|-3----------------------||---2-2-5----------5-|-
E|------------------------||-3------------------|-

G|---------4-||---------2-||--------------------|-
D|---4-4-7---||---2-2-5---||---------2-5-2------|-
A|-5---------||-3---------||---2-2-5-------5-2--|-
E|-----------||-----------||-3------------------|-

Part2: .....02:10
G|------------------------||--------------------|-
D|---------2--5-3-2-------||---------2--5-3-2---|-
A|---2-2-5----------5-----||---2-2-5----------5-|-
E|-3----------------------||-3------------------|-

G|---------2--5-3-2-------||--------------------|-
D|---2-2-5----------5-----||---------2--5-3-2---|-
A|-3----------------------||---2-2-5----------5-|-
E|------------------------||-3------------------|-

G|---------4-||---------2-||--------------------|-
D|---4-4-7---||---2-2-5---||--------------------|-
A|-5---------||-3---------||--------------------|-
E|-----------||-----------||-3.-----------------|-

Parts: 3/4/5/6/7/8.....: 02:31 (So play X6 the next riff)
G|-----------||-----------||--------------------|-
D|---------2-||---------2-||---------2--5-3-2---|-
A|---2-2-5---||---2-2-5---||---2-2-5----------5-|-
E|\3---------||-3---------||-3------------------|-

G|---------2-||---------2-||--------------------|-
D|---2-2-5---||---2-2-5---||---------2-5-2------|-
A|-3---------||-3---------||---2-2-5-------5-2--|-
E|-----------||-----------||-3------------------|-

G|---------7-||---------5-||-----------||-----------|-
D|---4-4-7---||---2-2-5---||---------5-||-----------|-
A|-5---------||-3---------||---2-2-5---||-----------|-
E|-----------||-----------||-3---------||-3.--------|-

Break: 04:34
G|-----------||------------------------------------||-
D|-----------||------ Guitars playing -------------||-
A|-----------||------------------------------------||-
E|-3.--------||------------------------------------||-

DRUMS ++++ +++

Reprise: 05:17  Play X7 (Instrumental) 
G|-----------||-----------||--------------------|-
D|---------2-||---------2-||---------2--5-3-2---|-
A|---2-2-5---||---2-2-5---||---2-2-5----------5-|-
E|\3---------||-3---------||-3------------------|-

G|---------2-||---------2-||--------------------|-
D|---2-2-5---||---2-2-5---||---------2-5-2------|-
A|-3---------||-3---------||---2-2-5-------5-2--|-
E|-----------||-----------||-3------------------|-

G|---------7-||---------5-||-----------||-----------|-
D|---4-4-7---||---2-2-5---||---------5-||-----------|-
A|-5---------||-3---------||---2-2-5---||-----------|-
E|-----------||-----------||-3---------||-3.--------|-
   
  
Outro: 07:18 (Play x2)      (Guitar tips) 
G|-----------||-----------||--------------------|-
D|---------2-||---------2-||---------2--5-3-2---|-
A|---2-2-5---||---2-2-5---||---2-2-5----------5-|-
E|\3---------||-3---------||-3------------------|-

G|---------2-||---------2-||--------------------|-
D|---2-2-5---||---2-2-5---||---------2-5-2------|-
A|-3---------||-3---------||---2-2-5-------5-2--|-
E|-----------||-----------||-3------------------|-

G|---------7-||---------5-||-----------||-----------|-
D|---4-4-7---||---2-2-5---||---------5-||-----------|-
A|-5---------||-3---------||---2-2-5---||-----------|-
E|-----------||-----------||-3---------||-3.--------|-
        
Part2... 

G|-----------||-----------||------------------------|-
D|---------2-||---------2-||---------2--5-3-2-------|-
A|---2-2-5---||---2-2-5---||---2-2-5----------5-----|-
E|23---------||23---------||23----------------------|-

G|---------2-||---------2-||------------------------|-
D|---2-2-5---||---2-2-5---||---------2--5-3-2-------|-
A|23---------||23---------||---2-2-5----------5-----|-
E|-----------||-----------||23----------------------|-

G|---------7-||---------5-||-----------||-----------||
D|---4-4-7---||---2-2-5---||-----------||-----------||
A|45---------||23---------||-----------||-----------||
E|-----------||-----------||-3r-333333-||-3~~~------||

End: 08:32



Tablature Legend ----------------  
| S  slap 
| P  pop 
| x  mute note
| .  full stop 
| /  slide up 
| \  slide down 
| h  hammer-on 
| p  pull-off 
| g  grace note 
| ~  vibrato 
| ^  brush up
Добавлено: 26.08.2015
Другие материалы по этой песне:
  • Аккорды и текст

Страница создана 26.08.2015
http://primanota.ru/clapton-eric/futher-on-up-road-chords.htm
Привет, Гость.
Предлагаем пройти революционный курс по гитаре.
Подарок от PrimaNota.Ru, забирай!