PrimaNota.ru - самый крупный в мире бесплатный архив песенных текстов, аккордов, табулатур и нот


Clapton, Eric - Low Down - бас-таба, видео

Регистрация Запомнить меня
Войти через:  Facebook Google Twitter Vk Yandex Mail.ru

Clapton, Eric - Low Down - бас-таба, видео

Печатать
Просмотров: 104
Steve Winwood / Eric Clapton  
(Live Madison Square Garden)

LOW DOWN


Bass Tabs
Tuning : EADG
Tempo: 163 bpm 
Key: A

INTRO:  (Bass starts: 00:05)
G|--------------------||----------|----------|-
D|----   GUITARS  ----||----4-7-4-|----------|-
A|--------------------||-7--------|-7--4-7---|- X6
E|--------------------||----------|--------5-|-


VERSE1: 00:23
G|----------|--------4-||--------------------|-
D|--------4-|----4-7---||---------4-7-4------|-
A|----4-7---|-45-------||----4-7---------7-4-|- 
E|-45-------|----------||-45-----------------|-
Low down, low down dirty shame

G|--------4-|--------4-||--------------------|-
D|----4-7---|----4-7---||---------4-7-4------|-
A|-45-------|-45-------||----4-7---------7-4-|- 
E|----------|----------||-45-----------------|-
Low down, low down dirty shame

G|--------6-|--------4-||--------------------|-
D|----6-9---|----4-7---||---------4-7-4------|-
A|-67-------|-45-------||----4-7---------7-4-|- 
E|----------|----------||-45-----------------|-
I've had nothing but the blues
Since I heard your name

VERSE2: 00:41
G|----------|--------4-||--------------------|-
D|--------4-|----4-7---||---------4-7-4------|-
A|----4-7---|-45-------||----4-7---------7-4-|- 
E|-45-------|----------||-45-----------------|-
No more, no more blues today

G|--------4-|--------4-||--------------------|-
D|----4-7---|----4-7---||---------4-7-4------|-
A|-45-------|-45-------||----4-7---------7-4-|- 
E|----------|----------||-45-----------------|-
No more, no more blues today

G|--------6-|--------4-||--------------------|-
D|----6-9---|----4-7---||---------4-7-4------|-
A|-67-------|-45-------||----4-7---------7-4-|- 
E|----------|----------||-45-----------------|-
I've been fond of you baby
But you got me crying everyday

VERSE3: 00:55
G|----------|--------4-||--------------------|-
D|--------4-|----4-7---||---------4-7-4------|-
A|----4-7---|-45-------||----4-7---------7-4-|- 
E|-45-------|----------||-45-----------------|-
I've been waiting, waiting so long for you

G|--------4-|--------4-||--------------------|-
D|----4-7---|----4-7---||---------4-7-4------|-
A|-45-------|-45-------||----4-7---------7-4-|- 
E|----------|----------||-45-----------------|-
Waiting, waiting so long for you

G|--------6-|--------4-||--------------------|-
D|----6-9---|----4-7---||---------4-7-4------|-
A|-67-------|-45-------||----4-7---------7-4-|- 
E|----------|----------||-45-----------------|-
It was good news sometimes
And then sometimes, it was bad news

INSTRUMENTAL(1): 01:16 (play X2)
G|----------|--------4-||--------------------|-
D|--------4-|----4-7---||---------4-7-4------|-
A|----4-7---|-45-------||----4-7---------7-4-|- 
E|-45-------|----------||-45-----------------|-

G|--------4-|--------4-||--------------------|-
D|----4-7---|----4-7---||---------4-7-4------|-
A|-45-------|-45-------||----4-7---------7-4-|- 
E|----------|----------||-45-----------------|-

G|--------6-|--------4-||--------------------|-
D|----6-9---|----4-7---||---------4-7-4------|-
A|-67-------|-45-------||----4-7---------7-4-|- 
E|----------|----------||-45-----------------|-

VERSE4: 01:51
G|----------|--------4-||--------------------|-
D|--------4-|----4-7---||---------4-7-4------|-
A|----4-7---|-45-------||----4-7---------7-4-|- 
E|-45-------|----------||-45-----------------|-
Low down, low down dirty shame

G|--------4-|--------4-||--------------------|-
D|----4-7---|----4-7---||---------4-7-4------|-
A|-45-------|-45-------||----4-7---------7-4-|- 
E|----------|----------||-45-----------------|-
Low down, low down dirty shame

G|--------6-|--------4-||--------------------|-
D|----6-9---|----4-7---||---------4-7-4------|-
A|-67-------|-45-------||----4-7---------7-4-|- 
E|----------|----------||-45-----------------|-
I've had nothing but the blues
Since I heard your name

INSTRUMENTAL(2): 02:08 (play X2)
G|----------|--------4-||--------------------|-
D|--------4-|----4-7---||---------4-7-4------|-
A|----4-7---|-45-------||----4-7---------7-4-|- 
E|-45-------|----------||-45-----------------|-

G|--------4-|--------4-||--------------------|-
D|----4-7---|----4-7---||---------4-7-4------|-
A|-45-------|-45-------||----4-7---------7-4-|- 
E|----------|----------||-45-----------------|-

G|--------6-|--------4-||--------------------|-
D|----6-9---|----4-7---||---------4-7-4------|-
A|-67-------|-45-------||----4-7---------7-4-|- 
E|----------|----------||-45-----------------|-

VERSE4: 02:44
G|----------|--------4-||--------------------|-
D|--------4-|----4-7---||---------4-7-4------|-
A|----4-7---|-45-------||----4-7---------7-4-|- 
E|-45-------|----------||-45-----------------|-
I've been crying, crying all night along

G|--------4-|--------4-||--------------------|-
D|----4-7---|----4-7---||---------4-7-4------|-
A|-45-------|-45-------||----4-7---------7-4-|- 
E|----------|----------||-45-----------------|-
Crying, crying all night along
G|--------6-|--------4-||--------------------|-
D|----6-9---|----4-7---||---------4-7-4------|-
A|-67-------|-45-------||----4-7---------7-4-|- 
E|----------|----------||-45-----------------|-
I had nothing but the blues
Since you came along

VERSE6: 03:02
G|----------|--------4-||--------------------|-
D|--------4-|----4-7---||---------4-7-4------|-
A|----4-7---|-45-------||----4-7---------7-4-|- 
E|-45-------|----------||-45-----------------|-
So low down, low down dirty shame

G|--------4-|--------4-||--------------------|-
D|----4-7---|----4-7---||---------4-7-4------|-
A|-45-------|-45-------||----4-7---------7-4-|- 
E|----------|----------||-45-----------------|-
Low down, low down dirty shame

G|--------6-|--------4-||--------------------|-
D|----6-9---|----4-7---||---------4-7-4------|-
A|-67-------|-45-------||----4-7---------7-4-|- 
E|----------|----------||-45-----------------|-
I've had nothing but the blues
Since I heard your name.

INSTRUMENTAL(3) / OUTRO: 03:20 
G|----------|--------4-||--------------------|-
D|--------4-|----4-7---||---------4-7-4------|-
A|----4-7---|-45-------||----4-7---------7-4-|- 
E|-45-------|----------||-45-----------------|-

G|--------4-|--------4-||--------------------|-
D|----4-7---|----4-7---||---------4-7-4------|-
A|-45-------|-45-------||----4-7---------7-4-|- 
E|----------|----------||-45-----------------|-

G|--------6-|--------4-||--------------------|-
D|----6-9---|----4-7---||---------4-7-4------|-
A|-67-------|-45-------||----4-7---------7-4-|- 
E|----------|----------||-45-----------------|-
 ... OUTRO: 
G|----------|--------4-||--------------------|-
D|--------4-|----4-7---||---------4-7-4------|-
A|----4-7---|-45-------||----4-7---------7-4-|- 
E|-45-------|----------||-45-----------------|-

G|--------4-|--------4-||--------------------|-
D|----4-7---|----4-7---||---------4-7-4------|-
A|-45-------|-45-------||----4-7---------7-4-|- 
E|----------|----------||-45-----------------|-

G|--------6-|--------4-||--------------------|-
D|----6-9---|----4-7---||---------4-7-4------|-
A|-67-------|-45-------||----4-7---------7-4-|- 
E|----------|----------||-45-----------------|-

G|--------6-|--------4-||--------------|-----|-
D|----6-9---|----4-7---||---------4-7--|-----|-
A|-67-------|-45-------||----4-7-------|-5~~-|- 
E|----------|----------||-45-----------|-----|-

End: 04:11




Tablature Legend:  
| S  slap 
| P  pop 
| x  mute note 
| /  slide up 
| \  slide down 
| h  hammer-on 
| p  pull-off 
| g  grace note 
| ~  vibrato 
| ^  brush up


A (Ref scale)
G|------------------||------------------|-
D|-------4-7-4------||-------4-7-4------|-
A|---4-7-------7-4--||---4-7-------7-4--|- 
E|-5----------------||-5----------------|-

G|-------4-7-4------||-------4-7-4------|-
D|---4-7-------7-4--||---4-7-------7-4--|-
A|-5----------------||-5----------------|- 
E|------------------||------------------|-

G|------------------||------------------|-
D|-------4-7-4------||-------4-7-4------|-
A|---4-7-------7-4--||---4-7-------7-4--|- 
E|-5----------------||-5----------------|-

G|-------6-9-6------||-------6-9-6------|-
D|---6-9-------9-6--||---6-9-------9-6--|-
A|-7----------------||-7----------------|- 
E|------------------||------------------|-

G|-------4-7-4------||-------4-7-4------|-
D|---4-7-------7-4--||---4-7-------7-4--|-
A|-5----------------||-5----------------|- 
E|------------------||------------------|-

G|------------------||------------------|-
D|-------4-7-4------||-------4-7-4------|-
A|---4-7-------7-4--||---4-7-------7-4--|- 
E|-5----------------||-5----------------|-
Добавлено: 26.08.2015
Другие материалы по этой песне:
  • Аккорды и текст

Страница создана 26.08.2015
http://primanota.ru/clapton-eric/low-down-chords.htm
Привет, Гость.
Предлагаем пройти революционный курс по гитаре.
Подарок от PrimaNota.Ru, забирай!