PrimaNota.ru - самый крупный в мире бесплатный архив песенных текстов, аккордов, табулатур и нот


Clapton, Eric - While My Guitar Gently Weeps Concert For George - таба, видео

Регистрация Запомнить меня
Войти через:  Facebook Google Twitter Vk Yandex Mail.ru

Clapton, Eric - While My Guitar Gently Weeps Concert For George - таба, видео

Печатать
Просмотров: 211
---------------------------------------------------------------------------------------------------
                                          Artist - Eric Clapton
                                         ********************
                               Song - While My Guitar Gently Weeps (live)
                              ********************************************
                      Album - Concert for George Paul McCartney & Eric Clapton (live)   
                     *****************************************************************
                                          Tabbed By - Ayreon77
                                         **********************
---------------------------------------------------------------------------------------------------
Tuning = Standard                  This was A request for the 2nd solo



03:37
SOLO 2                                                 
*******                                                                     higher
e|-----------------------------------|----------------------------|-----------|-----------------------------|
B|---s-------------------------------|-----------b----------------|---h----b--b---b------s------------------|
G|-12\14--12-14--12-14--12-14--12-14-|-14-12-14-14----14~~~-14-14-|-12-14-14-14--14-14-12\13----------12----|
D|-----------------------------------|----------------------------|--------------------------14-12-14----14-|
A|-----------------------------------|----------------------------|-----------------------------------------|
E|-----------------------------------|----------------------------|-----------------------------------------|


e|-------------------------------|-----------|----------|-------|-------|-------------|-------|
B|---s----------b---------b------|--------rb-|-----rb---|--rb---|--rb---|--rb----17~~-|--rb---|
G|-12\14-14-16-16--14-16-16~~~~~-|-14-16-16--|-14-16-14-|-16-14-|-16-14-|-16-14-------|-16-14-|
D|-------------------------------|-----------|----------|-------|-------|-------------|-------|
A|-------------------------------|-----------|----------|-------|-------|-------------|-------|
E|-------------------------------|-----------|----------|-------|-------|-------------|-------|

                                                     04:06                 br           b
e|--------------------------------------------------|--------------b-|-17-19-17--17-19-19-19-17-15--------|
B|--b--15--b--15--b--15--b--15-----b-17--br---------|--b-----b-17-20-|-----------------------------17~~~~-|
G|-17-----17-----17-----17-----17-17----17-14----14-|-17-17-19-------|------------------------------------|
D|--------------------------------------------17----|----------------|------------------------------------|
A|--------------------------------------------------|----------------|------------------------------------|
E|--------------------------------------------------|----------------|------------------------------------|


e|--b--17----------------------------------------------|
B|-20-----20-17--------b-17-17-17-17-17--b-r---h-----s-|
G|--------------19-17-19----------------19---17-19-17\-|
D|-----------------------------------------------------|
A|-----------------------------------------------------|
E|-----------------------------------------------------|

04:23
e|----------------------|--b--r------------------|--b-r------br-------brbrbrbr-------br----------------|
B|---------------h----s-|-17---17-15-------------|-14-------14-------14-----14------14--------h--------|
G|-s--12-12-12-12-14--\-|------------17-16-14-16-|------14-------14-------------14------14--12-14----s-|
D|-2\-------------------|------------------------|-------------------------------------------------12\-|
A|----------------------|------------------------|-----------------------------------------------------|
E|----------------------|------------------------|-----------------------------------------------------|


e|---------------8--------------------|---5----------------------|
B|-------s--8-10---10--8--s-----------|-b---8-5-br---------------|
G|-s--5-7\9--------------9\7~~--5-----|-7-------7-5-4------s-----|
D|-\7-----------------------------7~~-|---------------7-5-7\---7-|
A|------------------------------------|----------------------0---|
E|------------------------------------|--------------------------|


e|--b-r-----------b--r-----b--r---h--------b-15--rb-|--b-15--rb---h-b----------|
B|-15--13----13--15----13-15----13-15--13-15----15--|-15----15--13-15-13-15----|
G|--------14----------------------------------------|-----------------------14-|
D|--------------------------------------------------|--------------------------|
A|--------------------------------------------------|--------------------------|
E|--------------------------------------------------|--------------------------|

                                            h     h       h     h       h     h       h     h       h     h
e|--b------h--------------------s---15-17-15-17-15-17-|-15-17-15-17-|-15-17-15-17-|-15-17-15-17-|-15-17-15-17-|
B|-15-15-13-15-13---p------13-15\17-------------------|-------------|-------------|-------------|-------------|
G|----------------14-12-14----------------------------|-------------|-------------|-------------|-------------|
D|----------------------------------------------------|-------------|-------------|-------------|-------------|
A|----------------------------------------------------|-------------|-------------|-------------|-------------|
E|----------------------------------------------------|-------------|-------------|-------------|-------------|

     h     h       h     h      b  r                                             s                          s
e|-15-17-15-17-|-15-17-15-17-|-17----15----------------|--brp-----------|-17~~~17\-|-17~~~-17-19-20-19-17-17\-|
B|-------------|-------------|----------17-16-15-------|-15--13----s-s--|----------|--------------------------|
G|-------------|-------------|-------------------17-14-|--------14-\-/--|----------|--------------------------|
D|-------------|-------------|-------------------------|----------------|----------|--------------------------|
A|-------------|-------------|-------------------------|----------------|----------|--------------------------|
E|-------------|-------------|-------------------------|----------------|----------|--------------------------|

          rb
e|-17-19-19--17-----------------------|----------------------b--------------|
B|--------------20-17--br--------b-s--|-s--8---8---8---8-10-10-10-8--p------|
G|--------------------19-17-19--19-\--|-\9---9---9---9--------------9-7-5---|
D|------------------------------------|-----------------------------------7-|
A|------------------------------------|-------------------------------------|
E|------------------------------------|-------------------------------------|

05:25
e|-5---------------------|--------------|-------------------|
B|---8-5-br--------------|--------b-----|-------------------|
G|-------7-5----------h--|-5-5--7-7-5---|-5-----------------|
D|-----------7---5---5-7-|-5-5--7-7-5---|---7-5--s----------|
A|-----------------7-----|------------7-|-------7\5-3-------|
E|-----------------------|--------------|-------------5-3-5-|



ENJOY.......
Добавлено: 11.09.2015
Вам также может быть интересно:
Другие материалы по этой песне:
  • Аккорды и текст

Страница создана 11.09.2015
http://primanota.ru/clapton-eric/while-my-guitar-gently-weeps-concert-for-george-chords.htm
Привет, Гость.
Предлагаем пройти революционный курс по гитаре.
Подарок от PrimaNota.Ru, забирай!