PrimaNota.ru - самый крупный в мире бесплатный архив песенных текстов, аккордов, табулатур и нот


Clapton, Eric - Sunshine Of Your Love Live - таба, видео

Регистрация Запомнить меня
Войти через:  Facebook Google Twitter Vk Yandex Mail.ru

Clapton, Eric - Sunshine Of Your Love Live - таба, видео

Печатать
Просмотров: 167
Уроки эстрадного вокала в Санкт-Петербурге
Sunshine Of Your Love - Eric Clapton


Live at Madison Square Gardens


Ok guys, so basically the whole song is standard, pretty much like the album version bar a few bits and pieces
and the ending. The main difference is this awesome solo that Clapton does which I have finally gotten around
to tabbing out! Hope you all enjoy it.


Solo


Gtr I (Eric Clapton) (E A D G B E)

                  ~~~~~                                 ~~~~~
|-------------|-------------|-----------------------|-------------|
|---8h10--10--|8h10---------|--8--10s12--10--10--8--|8h10---------|
|-------------|-------------|-----------------------|-------------|
|-------------|-------------|-----------------------|-------------|
|-------------|-------------|-----------------------|-------------|
|-------------|-------------|-----------------------|-------------|


                             ~~~~~        ~~~~~                         ~~~~~
|-----------------------|-----------------------|----------------------|---------------|
|-----------------------|-----------10----------|----------------------|---------------|
|--9--11s12--11--11--9--|9h11-----------11------|--7--9s11--7--7-------|7---------(7)/-|
|-----------------------|-----------------------|-----------------7h9--|---------------|
|-----------------------|-----------------------|----------------------|---------------|
|-----------------------|-----------------------|----------------------|---------------|


        ~~~~~    ~~                                   ~~~~~
|-------------|---------------------------|-----------------------|
|--10b12------|10-------------------------|-----------------------|
|-------------|----12-12-12p10-10-10-10s9-|9-9-9s7-7-7------(7)/--|
|-------------|---------------------------|-----------------------|
|-------------|---------------------------|-----------------------|
|-------------|---------------------------|-----------------------|


                                                    ~~~~~       ~~~~~
|---------------10--12--13--|12p10-------------------------------|--------------------------------|
|--10--13b15----------------|-------13p10------------------------|--------------------------------|
|---------------------------|--------------12s14--14-------14b17-|-------14--12-11-12-11h12p11----|
|---------------------------|------------------------------------|-----------------------------12-|
|---------------------------|------------------------------------|--------------------------------|
|---------------------------|------------------------------------|--------------------------------|


    ~~~~~                              ~~~~~         ~~~~~
|--------------------10----12b14r12-|10--------------------14-15-17-|
|----------------10-----------------|--------------15---------------|
|---------10h11---------------------|-------------------------------|
|-12--------------------------------|-------------------------------|
|-----------------------------------|-------------------------------|
|-----------------------------------|-------------------------------|


                                  ~~~~~      ~~~~~                     ~~
|-15-17-17b19r17--15p13-------|--------------------------15h17p15----15--|
|-----------------------15p13-|-15------15-15------15h18----------18-----|
|-----------------------------|------------------------------------------|
|-----------------------------|------------------------------------------|
|-----------------------------|------------------------------------------|
|-----------------------------|------------------------------------------|


~~~                                                                  ~~
|----17----------15h17p15----15h17p15----|-15h17p15----15h17p15----15---17-|
|----------15h18----------18----------18-|----------18----------18---------|
|----------------------------------------|---------------------------------|
|----------------------------------------|---------------------------------|
|----------------------------------------|---------------------------------|
|----------------------------------------|---------------------------------|


                                            ~~~~~
|-------15h17p15-------------15h17-15h17-|15-------------------15h17-----------15-|
|-15h18-------------15h18----------------|--------18----15h18-----------15--18----|
|----------------------------------------|----------------------------------------|
|----------------------------------------|----------------------------------------|
|----------------------------------------|----------------------------------------|
|----------------------------------------|----------------------------------------|


                                                          ~~~~~   ~~~~~                       
|-15h17-----------15--15h17----15--------|------------------------------|
|----------15--18------------------18p15-|-18b20--------18------15------|
|----------------------------------------|------------------------------|
|----------------------------------------|------------------------------|
|----------------------------------------|------------------------------|
|----------------------------------------|------------------------------|


                                   ~~~~~                                         ~~~~~
|----------------------------------------|----------------------------------------------|
|----15---15---15--18b20-----15--15------|-13p10-13p10----------13----------------------|
|-17b--17b--17b--------------------------|-------------12p10-12----12-10-10-------------|
|----------------------------------------|----------------------------------12-10-------|
|----------------------------------------|----------------------------------------------|
|----------------------------------------|----------------------------------------------|



Tablature Legend
----------------
 h   - hammer-on
 p   - pull-off
 b   - bend
 r   - bend release (if no number after the r, then release immediately)
 /\  - slide into or out of (from/to "nowhere")
 s   - legato slide
 ~   - vibrato
 |   - bar


Tabbed by agsessionmusic, Thursday 28th May, 2015
Добавлено: 26.08.2015
Другие материалы по этой песне:
  • Аккорды и текст

Страница создана 26.08.2015
http://primanota.ru/clapton-eric/sunshine-of-your-love-live-chords.htm
Привет, Гость.
Предлагаем пройти революционный курс по гитаре.
Подарок от PrimaNota.Ru, забирай!