PrimaNota.ru - самый крупный в мире бесплатный архив песенных текстов, аккордов, табулатур и нот


Clannad - Siuil A Ruin - аккорды и текст, таба, видео

Регистрация Запомнить меня
Войти через:  Facebook Google Twitter Vk Yandex Mail.ru

Clannad - Siuil A Ruin - аккорды и текст, таба, видео

Печатать
Просмотров: 574
Уроки эстрадного вокала в Санкт-Петербурге
Siuil A Ruin
Clannad
                       Clannad - Siuil A Ruin


Tabbed by: Justin

Tuning: Standard

I have been working on this tab for a long time, very pretty song
I hope that you enjoy playing it as much as I enjoyed tabbing.
I am sure its 100% right on the dot, listen and play along
PLEASE give good ratings for this, I worked really hard on this.

Intro:

e|-------0-0-------------------3-0------------------------------------0-0-----0------|
B|-0h1-3-----3-1---------1-3-------3-1--------0h1-1-3-1--------0h1--3-----3-1---3----|
G|---------------0-2-2-2-----2---------2-0--2-----------2-0-2---------------------0-2|
D|-----------------------------------------------------------------------------------|
A|-----------------------------------------------------------------------------------|
E|-----------------------------------------------------------------------------------|
    (instead of doing a down strum on the F here, strum up towards you, and let it ring)
e|-1----------------------------------------------------------------------------------|
B|-1----------------------------------------------------------------------------------|
G|-2----------------------------------------------------------------------------------|
D|-3----------------------------------------------------------------------------------|
A|-3----------------------------------------------------------------------------------|
E|-1----------------------------------------------------------------------------------|


The Chord Progression Never changes. Its Pretty simple, its the same
for the chorus's and verses.

   Am     G     F   G   Am
I wish I was on yonder hill
       C        G       F      G
'Tis there I'd sit and cry my fill
        F    Am         F   G  Am
Until every tear would turn a mill
       Am        Em7      F
Is go dte tu mo mhuirnin slan


Chorus (in phonetic gaelic)
Shule, shule, shule aroon,
Shule go succir agus, shule go kewn,
Shule go dheen durrus oggus aylig lume,
Iss guh day thoo avorneen slawn.

I'll sell my rock, I'll sell my reel,
I'll sell my only spinning wheel,
To buy my love a sword of steel
Iss guh day thoo avorneen slawn.

Shule, shule, shule aroon,
Shule go succir agus, shule go kewn,
Shule go dheen durrus oggus aylig lume,
Iss guh day thoo avorneen slawn.

I'll dye my petticoats, I'll dye them red,
And 'round the world I'll beg my bread,
Until my parents shall wish me dead,
Iss guh day thoo avorneen slawn.

Shule, shule, shule aroon,
Shule go succir agus, shule go kewn,
Shule go dheen durrus oggus aylig lume,
Iss guh day thoo avorneen slawn.


I wish, I wish, I wish in vain,
I wish I had my heart again,
And vainly think I'd not complain,
Iss guh day thoo avorneen slawn.

Shule, shule, shule aroon,
Shule go succir agus, shule go kewn,
Shule go dheen durrus oggus aylig lume,
Iss guh day thoo avorneen slawn.

But now my love has gone to france,
To try his fortune to advance;
If he e'er come back, 'tis but a chance,
Iss guh day thoo avorneen slawn.

Shule, shule, shule aroon,
Shule go succir agus, shule go kewn,
Shule go dheen durrus oggus aylig lume,
Iss guh day thoo avorneen slawn.


Translation
Chorus:
Come, come, come, o love,
Quickly come to me, softly move;
Come to the door, and away we'll flee,
And safe for aye may my darling be!
Добавлено: 16.04.2012
Другие материалы по этой песне:
  • Аккорды и текст

Страница создана 16.04.2012
http://primanota.ru/clannad/siuil-a-ruin-chords.htm
Привет, Гость.
Предлагаем пройти революционный курс по гитаре.
Подарок от PrimaNota.Ru, забирай!