PrimaNota.ru - самый крупный в мире бесплатный архив песенных текстов, аккордов, табулатур и нот


Clannad - Roaring Tides - таба, видео

Регистрация Запомнить меня
Войти через:  Facebook Google Twitter Vk Yandex Mail.ru

Clannad - Roaring Tides - таба, видео

Печатать
Просмотров: 168
I have a hard time playing this myself. :P so good luck!! :D

     H.           Q         E  E  E  E  E  E  E  E     E  E  E  E  E  E  E  E   
E||--------------------||------0--------------------|-----------------0--------|
A||--------------------||---0-----0-----0-----------|--------------0-----0-----|
G||---------------0----||*-----------0--------------|-----------0-----------0--|
D||--------------------||*--------2-----------2-----|--------0-----------0-----|
A||--------------------||------3-----3-----3-----3--|-----2-----2-----2-----2--|
E||--------------------||---1-----------1-----------|--3-----------3-----------|


  E  E  E  E  E  E  E  E     E  E  E  E  E  E  E  E   
-----0--------------------|--------------------------|
--0-----0-----0-----------|-----------0--------0--2--|
-----------0--------------|--0--------------0-----0--|
--------2-----------2--2--|--------2--0--2-----2-----|
--0--3-----3--0--3-----3--|--0--3-----------3--------|
--------------------------|--------------3-----------|


  E  E  E  E  E  E  E  E     E  E  E  E  E  E  E  E   
-----0--------------------|-----------------0--------|
--0-----0-----0-----------|--------------0-----2--3--|
-----------0--------------|-----------0--------------|
--------2-----------2-----|--------0-----------0-----|
-----3-----3-----3-----3--|-----2-----2-----2-----2--|
--1-----------1-----------|--3-----------3-----------|


  E  E  E  E  E  E  E  E     E  E  E  E  E  E  E  E   
--------------------------|--------------------------|
--2--3--2--0--------------|-----------0--------0--2--|
--------------------------|-----------------0-----0--|
--------2-----2-----2-----|--------2--0--2-----2-----|
--0--3-----3--0--3-----3--|--0--3-----------3--------|
--------------------------|--------------3-----------|


  E  E  E  E  E  E  E  E     E  E  E  E  E  E  E  E   
-----0--------------------|-----------------0--------|
--0-----0-----0-----------|--------------0-----0-----|
-----------0--------------|-----------0-----------0--|
--------2-----------2-----|--------0-----------0-----|
-----3-----3-----3-----3--|-----2-----2-----2-----2--|
--1-----------1-----------|--3-----------3-----------|


  E  E  E  E  E  E  E  E     E  E  E  E  E  E  E  E   
-----0--------------------|--------------------------|
--0-----0-----0-----------|-----------0--------0--2--|
-----------0--------------|--0--------------0-----0--|
--------2-----------2--2--|--------2--0--2-----2-----|
--0--3-----3--0--3-----3--|--0--3-----------3--------|
--------------------------|--------------3-----------|


  E  E  E  E  E  E  E  E     E  E  E  E  E  E  E  E   
-----0--------------------|-----------------0--------|
--0-----0-----0-----------|--------------0-----2--3--|
-----------0--------------|-----------0--------------|
--------2-----------2-----|--------0-----------0-----|
-----3-----3-----3-----3--|-----2-----2-----2-----2--|
--1-----------1-----------|--3-----------3-----------|


                           First Ending---------------
  E  E  E  E  E  E  E  E     E  E  E  E  E  E  E  E     
-----------0--------------|---------------------------||
--2--3--5-----0-----------|-----------0---------------||
--------------------------|--------------------0--0--*||
--------2-----------2-----|--------2-----------2-----*||
--0--3-----3--0--3-----3--|--0--3-----------3---------||
--------------------------|--------------3------------||


Second Ending------------
  E  E  E  E  E  E  Q         E  E  E  E  E  E  E  E   
--------------------3----||------0--5--0-----0--5--0--|
--------0--0--2----------||---5-----------5-----------|
-------------------------||*--------------------------|
--------2-----------2----||*--------2-----------2-----|
--0--3-----------3-------||------3-----3-----3-----3--|
--------------3----------||---1-----------1-----------|


  E  E  E  E  E  E  E  E     E  E  E  E  E  E  E  E   
-----0--5--0-----0--7--0--|-----0--5--0-----0--7--0--|
--5-----------5-----------|--5-----------5-----------|
--------------------------|--------------------------|
--------0-----------0-----|--------2-----------------|
-----2-----2-----2-----2--|--0--3-----3--0--3--7-----|
--3-----------3-----------|-----------------------8--|


  E  E  E  E  E  E  E  E   3x  E  E  E  E  E  E  E  E   
-----0--8--0--7--0--5--0---||-----0--5--0-----0--5--0--|
--5------------------------||--5-----------5-----------|
--------------0--------0--*||--------------------------|
-----------7--------2-----*||--------2-----------2-----|
--0-----7------------------||-----3-----3-----3-----3--|
-----8-----------8---------||--1-----------1-----------|


                                                        ^                  
  E  E  E  E  E  E  E  E     E  E  E  E  E  E  E  E     W                  
-----0--5--0-----0--7--0--|-----0--5--0-----0--8--7--|--5----------------||
--5-----------5-----------|--5-----------5-----------|--3----------------||
--------------------------|--------------------------|--2----------------||
--------0-----------0-----|--------2-----------------|--2----------------||
-----2-----2-----2-----2--|--0--3-----3--0--3--7-----|--0----------------||
--3-----------3-----------|-----------------------8--|-------------------||




Duration Legend
---------------
W - whole
H - half
Q - quarter
E - 8th
S - 16th
T - 32nd
X - 64th
. - note dotted
|-n-|  - n-tuplets


Добавлено: 28.02.2012
Другие материалы по этой песне:

Страница создана 28.02.2012
http://primanota.ru/clannad/roaring-tides-chords.htm
Привет, Гость.
Предлагаем пройти революционный курс по гитаре.
Подарок от PrimaNota.Ru, забирай!