PrimaNota.ru - самый крупный в мире бесплатный архив песенных текстов, аккордов, табулатур и нот


Clannad - Toki Wo Kizamu Uta - таба, видео

Регистрация Запомнить меня
Войти через:  Facebook Google Twitter Vk Yandex Mail.ru

Clannad - Toki Wo Kizamu Uta - таба, видео

Печатать
Просмотров: 594
TOKI WO KIZAMU UTA
As recorded by Lia



Transcribed by GuitarGuy

 
Arranged by treskalle
 

Gtr I (E A D G B E) - Toki Wo Kizamu Uta


   Q=139
  3/4                             2/4     3/4
   Gtr I
   E  E E E E E     E  E E E E E    Q Q    E  E E  E E E    E  E E E E E
||-3------------|---0------------|-------|---------------|--7------------|
||--------3-----|---3------3-----|--3-7--|-8------10-----|--8------8-----|
||------0-0---0-|--------0-0---0-|-------|------7--7---7-|-------7-7---7-|
||----2-----2---|------2-----2---|-------|----9------9---|-----9-----9---|
||-3------------|--(3)-----------|--3-5--|-7-------------|-(7)-----------|
||--------------|----------------|-------|---------------|---------------|
   H.              +H.                     H.              +H.


 2/4     3/4                            2/4    3/4
  Q  Q    E  E E E E E    E  E E E E E   Q Q    E  E E E E E
|-------|--------------|--0------------|-0-2--|-2------3-------|
|-------|-1------3-----|--1------3-----|------|------3-3---3---|
|-7-----|------0-0---0-|-------0-0---0-|------|----0-----0-----|
|----7--|----2-----2---|-----2-----2---|---0--|----------------|
|-7--5--|-0------------|-(0)-----------|-3----|----------------|
|-------|--------------|---------------|------|-3--------------|
          H.             +H.                    H.


              4/4    3/4           4/4             3/4
  E E +Q   Q    W      E  E E E Q    E  E E E Q Q   Q   Q  Q
|-3-3-(3)----|------|--3--2-0-----|---------0-2-0-|-2---3--0--|
|-3-3-(3)----|------|---------3-0-|-----0-3-------|-----------|
|------------|------|-------------|--2------------|-----------|
|------------|------|-------------|-------------0-|-2---------|
|------------|------|--3----------|-(3)-------3---|-----------|
|------------|------|-------------|---------------|-----------|
                       H.           +H              H.


                          4/4             3/4         4/4
  E  E Q  Q   E  E E E Q    E  E E E Q Q   Q   Q E E   E E Q Q E E
|-0---------|-3--2-0-----|---------0-2-0-|-0---5-3-2-|-2-0-0--------|
|----3-3----|--------3-0-|-----0-3-------|-----------|---------7-8--|
|-----------|------------|--2------------|-----------|--------------|
|-0---------|------------|-------------0-|-2---------|-2------------|
|-----------|-3----------|-(3)-------3---|-----------|--------------|
|-----------|------------|---------------|-----------|--------------|
  H.          H.           +H              H.          W


 3/4
   Q   Q  Q     Q   Q  E E    Q   Q  Q    E  E +Q   E E   Q   Q  Q
|---------8--|-------------|------------|---------------|-0------5--|
|-10---8-----|-12------7-8-|-10---7-----|-------------3-|-----3-----|
|------------|-------------|---------7--|-7--9-(9)--2---|-----------|
|------------|-------------|------------|---------------|-----------|
|------------|-------------|------------|-7-------------|-----------|
|--8---------|--8----------|--7---------|---------------|-1---------|
   H.           H.            H.          H.              H.


                                                4/4
  Q   Q  E E   Q   Q  Q    H    E E   +H.         H
|----------2-|-3------7--|----------|----------|-----------|
|-3------3---|-----5-----|-3----2-3-|-(3)------|---------3-|
|------------|-----------|----------|----------|------2----|
|------------|-----------|----------|----------|-----------|
|------------|-----------|----------|----------|-----------|
|-2----------|-3---------|-5--------|-(5)------|------3--3-|
  H.           H.          H.         +H.             Q  Q


  Q.     E +Q    Q     +W
|-3------5-(5)---5---|-(5)---------------|
|--------------------|-------------------|
|--------------------|-------------------|
|--------------------|-------------------|
|-3--3-3-3--3--3-3-3-|--3--3-3-3-3-3-3-3-|
|--------------------|-------------------|
  E  E E E  E  E E E    E  E E E E E E E


  Q.      E  +Q     E E   +W
|------------------10-7-|-(7)---------------|
|-8------10-(10)--------|-------------------|
|-----------------------|-------------------|
|-----------------------|-------------------|
|-7--7-7--7---7--7--7-7-|-------------------|
|-----------------------|--7--7-7-7-7-7-7-7-|
  E  E E  E   E  E  E E    E  E E E E E E E


  Q.     E +Q    Q     +W
|-3------5-(5)---5---|-(5)---------------|
|--------------------|-------------------|
|--------------------|-------------------|
|--------------------|-------------------|
|-3--3-3-3--3--3-3-3-|--3--3-3-3-3-3-3-3-|
|--------------------|-------------------|
  E  E E E  E  E E E    E  E E E E E E E


  Q.     E +Q    Q     +H        Q   Q
|-2------3-(3)-------|-------------------|
|----------------3---|-(3)-----------3---|
|--------------------|-----------2-------|
|--------------------|-------------------|
|--------------------|-------------------|
|-3--3-3-3--3--3-3-3-|--3--3-3-3-3-3-3-3-|
  E  E E E  E  E E E    E  E E E E E E E


  Q.     E +Q    Q     +W
|-3------5-(5)---5---|-(5)---------------|
|--------------------|-------------------|
|--------------------|-------------------|
|--------------------|-------------------|
|-3--3-3-3--3--3-3-3-|--3--3-3-3-3-3-3-3-|
|--------------------|-------------------|
  E  E E E  E  E E E    E  E E E E E E E


  Q.      E  +Q     E E   +W
|------------------10-7-|-(7)---------------|
|-8------10-(10)--------|-------------------|
|-----------------------|-------------------|
|-----------------------|-------------------|
|-7--7-7--7---7--7--7-7-|-------------------|
|-----------------------|--7--7-7-7-7-7-7-7-|
  E  E E  E   E  E  E E    E  E E E E E E E


  Q.     E +Q    Q     +W
|-3------5-(5)---5---|-(5)---------------|
|--------------------|-------------------|
|--------------------|-------------------|
|--------------------|-------------------|
|-3--3-3-3--3--3-3-3-|--3--3-3-3-3-3-3-3-|
|--------------------|-------------------|
  E  E E E  E  E E E    E  E E E E E E E


  Q.     E +Q    Q     +W
|-2------3-(3)---3---|-(3)---------------|
|--------------------|-------------------|
|--------------------|-------------------|
|--------------------|-------------------|
|--------------------|-------------------|
|-3--3-3-3--3--3-3-3-|--3--3-3-3-3-3-3-3-|
  E  E E E  E  E E E    E  E E E E E E E


 5/8
  E E  E  E E   E E  E  E E   E E  E  E E
|-------------|-------------|-------------|
|---0-----3---|---0-----3---|---0-----3---|
|-2----0----0-|-2----0----0-|-2----0----0-|
|-2---(2)-----|-------------|-0---(0)-----|
|-------------|-3---(3)-----|-------------|
|-------------|-------------|-------------|
  Q   +Q        Q   +Q        Q   +Q


  E E  E  E E   E E  E  E E   E E  E  E E
|-------------|-------------|--------------|
|---0-----3---|---0-----3---|---0-----3----|
|-2----0----0-|-2----0----0-|-2----0----0--|
|-------------|-2---(2)-----|--------------|
|-------------|-------------|-3---(3)------|
|-3---(3)-----|-------------|--------------|
  Q   +Q        Q   +Q        Q   +Q


               6/8            5/8
  E E  E  E E   E  E E  E  Q   E E  E  E E
|-------------|---------0----|-------------|
|---0-----3---|----0-------3-|---0-----3---|
|-2----0----0-|-2----0-------|-2----0----0-|
|-0---(0)-----|--------------|-2---(2)-----|
|-------------|--------------|-------------|
|-------------|-3------(3)---|-------------|
  Q   +Q        Q.     +Q.     Q   +Q


  E E  E  E E   E E  E  E E   E  E E
|-------------|-------------|--------|
|---0-----3---|---0-----3---|----0---|
|-2----0----0-|-2----0----0-|-2----0-|
|-------------|-0---(0)-----|--------|
|-3---(3)-----|-------------|--------|
|-------------|-------------|-3------|
  Q   +Q        Q   +Q        Q.


                                             6/8
  E E   E E  E  E E   E E E E E   E E E E E   H.
|-----|-------------|-----------|-----------|-----------*|----|
|-3---|---0-----3---|---0---3---|---0---3---|-----------*|----|
|---0-|-2----0----0-|-2---0---0-|-2---0---0-|-0---------*|----|
|-4---|-2---(2)-----|-----------|-0---0-----|-----------*|----|
|-----|-------------|-3---3-----|-----------|-----------*|----|
|-----|-------------|-----------|-----------|-3---(3)---*|----|
  Q     Q   +Q        Q   Q       Q   Q       Q.  +Q.
Добавлено: 26.04.2012
Другие материалы по этой песне:
  • Аккорды и текст

Страница создана 26.04.2012
http://primanota.ru/clannad/toki-wo-kizamu-uta-chords.htm
Привет, Гость.
Предлагаем пройти революционный курс по гитаре.
Подарок от PrimaNota.Ru, забирай!