PrimaNota.ru - самый крупный в мире бесплатный архив песенных текстов, аккордов, табулатур и нот


Chimaira - Clayden - таба, видео

Регистрация Запомнить меня
Войти через:  Facebook Google Twitter Vk Yandex Mail.ru

Chimaira - Clayden - таба, видео

Печатать
Просмотров: 133
I'm very surprised this song hasn't been tabbed yet, So I decided to sit down and try to 
it out to the best of my ability, I think it's pretty accurate.

Tuning: Drop C, Low to High: (CGCFAD)

Main Riff: (Played during the verses)
D|-------------------------------------|
A|-------------------------------------|
F|-------------------------------------|
C|--3-2--2-3-2-3-5-3-2-3-2-------------|
G|--3-2--2-3-2-3-5-3-2-3-2-------------|
C|--3-2--2-3-2-3-5-3-2-3-2-------------|
    . .  . . . . . . . . .

Fill (1:08)
D|----------------|
A|----------------|
F|----------------|
C|----------------|
G|---5/-7~---/15\-|
C|-----------/15\-|


D|-------------------------------------|
A|-------------------------------------|
F|-------------------------------------|
C|-3--2-2-2-----3-2--2-3-2-3-5-3-2-3-2-| x3
G|-3--2-2-2-----3-2--2-3-2-3-5-3-2-3-2-|
C|-3--2-2-2-----3-2--2-3-2-3-5-3-2-3-2-|
   .            . .  . . . . . . . . .
Добавлено: 23.06.2013
Другие материалы по этой песне:
  • Аккорды и текст

Страница создана 23.06.2013
http://primanota.ru/chimaira/clayden-chords.htm
Привет, Гость.
Предлагаем пройти революционный курс по гитаре.
Подарок от PrimaNota.Ru, забирай!