PrimaNota.ru - самый крупный в мире бесплатный архив песенных текстов, аккордов, табулатур и нот


Chimaira - The Heart Of It All - таба, видео

Регистрация Запомнить меня
Войти через:  Facebook Google Twitter Vk Yandex Mail.ru

Chimaira - The Heart Of It All - таба, видео

Печатать
Просмотров: 124
This is simply a text version of the Guitar Pro tab uploaded by beewomp. I've had this
for months and covered this song on YouTube, and I've heard a few people asking for a
version. I don't THINK I've made any changes to the guitar pro tab.

I take no credit other than assembling it in a text format and re-arranging it
The tab was written by beewomp.

This is also the first time I've posted a tab. Please, let me know if I'm missing anything.

By the way...I'm mostly pasting the lead parts. Since this song is so long, posting 2-3
that run at the same time would be VERY confusing. With that said, I've cut a few
guitars out and left the leads in. If you would like the background guitars too, please, 
me. Until there's demand for it I see no point in adding to the confusion.

The key for the symbols is at the bottom of the page.

Tuning: C G C F A D

Clean Intro (0:00)

                                                      ^
     E   E  E  E  E  E  E   E     W                    W
D||---------------7------------|-------------------|---7----------------|
A||------------8-----8---------|-------------------|---8----------------|
F||---------9-----------9------|-------------------|---9----------------|
C||-----10-----------------10--|-------------------|--10----------------|
G||--0-------------------------|--0----------------|---0----------------|
C||----------------------------|-------------------|--------------------|

  W                   E  E  E   E   E   E  E  E     E   Q    Q     Q    E
--L----------------|-----------------------------|----------------10----L--|
--L----------------|-----------------------------|--8--------9-------------|
--L----------------|-------------------10-----7--|-----10------------------|
--L----------------|--------7------10------7-----|-------------------------|
-------------------|-----7-----10----------------|-------------------------|
-------------------|--7--------------------------|-------------------------|


                                ^     PM  ^                 ^     PM  ^
  W                   Q     E   E  E  E   Q       Q     E   E  E  E   Q
--L----------------|------------7---------7----|------------7---------7----|
-------------------|------------8---------8----|------------8---------8----|
-------------------|------------9---------9----|------------9---------9----|
-------------------|-------10--10--------10----|-------10--10--------10----|
-------------------|--0---------------0--------|--0---------------0--------|
-------------------|---------------------------|---------------------------|


            ^     PM  ^         ^                                ^     PM ^
  Q     E   E  E  E   E  E      H         E  E  E  E     Q    E  E  E  E  Q
------------7---------7-----|---7---------------------|----------------------|
------------8---------8-----|---8---------------------|----------5--------5--|
------------9---------9-----|---9---------------------|----------4--------4--|
-------10--10--------10-----|--10\--------------5--3--|-------5--5--------5--|
--0---------------0---------|-------------2--3--------|--3-------3-----3--3--|
----------------------------|-------------------------|----------------------|


          ^     PM ^               ^     PM ^        ^
  Q    E  E  E  E  Q       Q    E  E  E  E  E  E     H        E  E  E  E
------------------------|-------------------------|--3--------------------|
----------5--------5----|----------5--------5-----|--5--------------------|
----------4--------4----|----------4--------4-----|--4--------4--5--4-----|
-------5--5--------5----|-------5--5--------5-----|--5-----------------5--|
--3-------3-----3--3----|--3-------3-----3--3-----|--3--------------------|
------------------------|-------------------------|-----------------------|


                                                                 v
   E  E  H         Q        Q     Q    Q     Q        Q    Q     H
------------------------|-------------------------|---7----L-----7--------|
------------------------|--------------------8----|---8----L-----8--------|
------------------------|---------9----L-----9----|---9----L-----9--------|
--/7--0-----------10----|---L----10----L----10----|--10----L----10--------|
---------0---------0----|---L-----0----L-----0----|---0----L-----0--------|
------------------------|-------------------------|-----------------------|


   Q      E  E  E  E  E  E       E   E   E  E   Q    Q
--10br----L--8--7--8--7-----|-----------------------------|
-------------------------8--|--/10--10--10-----10----L----|
----------------------------|-----------------------------|
----------------------------|-------10--10-----10----L----|
----------------------------|-----------------------------|
----------------------------|-----------------------------|


    E   E   E  E   Q    Q        E   E   E   E   E   E   Q
-----------------------------|---------------------------------|
--/12--12--12-----12----L----|--13----------15----------17\----|
-----------------------------|---------------------------------|
-------12--12-----12----L----|------14--14------14--14---------|
-----------------------------|---------------------------------|
-----------------------------|---------------------------------|


  W                   E  E  E  E  E  E  E  E     E  E  E  E  E  E  Q
-------------------|--------------------------|-----0-------------------|
--L----------------|--------0--------0--------|--0-----0-----------0----|
-------------------|-----2--------4--------5--|-----------5-----5-------|
-------------------|--3--------5--------7-----|--------------7----------|
-------------------|--------------------------|-------------------------|
-------------------|--------------------------|-------------------------|


  E  E  E  E  E  E  E  E     E  E  E  E  E  E  E  E
--------------------------|-----0-----------7--------|
--------0--------0--------|--0-----0-----------0-----|
-----2--------4--------5--|-----------5-----------5--|
--3--------5--------7-----|--------------7-----------|
--------------------------|--------------------------|
--------------------------|--------------------------|


  E  E  E  E  E  E    E  E     E  E  E  E   E  E  E  E
----------------------------|-----0---------------------|
--------0--------0----------|--0-----0------------0--L--|
-----2--------4----------9--|-----------9------9--------|
--3--------5--------/10-----|--------------10-----------|
----------------------------|---------------------------|
----------------------------|---------------------------|


   E   E   E   E   E   E   E   E      E   E   E   E   E   E   E   E
----------------------------------|----------------------------------|
--10----------12----------13------|----------------------------------|
----------------------------------|----------------------------------|
------10--10------12--12------14--|--14--14--14--14--14--14--14--14--|
----------------------------------|----------------------------------|
----------------------------------|----------------------------------|


   E   E   E   E   E   E   E   E      E   E   E   E   H
----------------------------------|-----------------------------|
--10----------12----------13------|-----------------------------|
----------------------------------|-----------------------------|
------10--10------12--12------14--|--14--14--14--14--14\--------|
----------------------------------|-----------------------------|
----------------------------------|-----------------------------|


  E   E  E  E  E  E  E   E     E   E  E  E  E  E  E   E
---------------7------------|---------------7------------|
------------8-----8---------|------------8-----8---------|
---------9-----------9------|---------9-----------9------|
-----10-----------------10--|-----10-----------------10--|
--0-------------------------|--0-------------------------|
----------------------------|----------------------------|


  E  E   E  E  E  E   E   E     E  E   E  E   E  E  E   E
------------7--8--7----------|------------7--10--8--7------|
--------10-----------10------|--------10---------------10--|
-----9-------------------10--|-----9-----------------------|
--0--------------------------|--0--------------------------|
-----------------------------|-----------------------------|
-----------------------------|-----------------------------|


  E   E  E  E  E  E  E   E     E   E  E  E  E  E  E   E
---------------7------------|---------------7------------|
------------8-----8---------|------------8-----8---------|
---------9-----------9------|---------9-----------9------|
-----10-----------------10--|-----10-----------------10--|
--0-------------------------|--0-------------------------|
----------------------------|----------------------------|


  E  E   E  E  E  E   E   E     E  E   E  E  E   E   E   E
------------7--8--7----------|------------7--8--10--10--12--|
--------10-----------10------|--------10--------------------|
-----9-------------------10--|-----9------------------------|
--0--------------------------|--0---------------------------|
-----------------------------|------------------------------|
-----------------------------|------------------------------|

1:24 - At this point the clean piece continues but introduces a distorted guitar. The
is the distorted guitar.

-------|-------|-------------------------|-------------------------|
-------|-------|-------------------------|-------------------------|
-------|-------|-------------------------|-------------------------|
-------|-------|--/10~--------L----9--9--|--L--7--------7--9--9-10-|
-------|-------|-------------------------|-------------------------|
-------|-------|-------------------------|-------------------------|


  E  Q    S  S E  Q      E      E   Q     Q     Q      E     W
----------------------------|-----------------------------|-------------------|
----------------------------|-----------------------------|-------------------|
----------------------------|-----------------------------|-------------------|
--L--9----9-10-L--9----/14--|---L--12----10----12----/14--|--L----------------|
----------------------------|-----------------------------|-------------------|
----------------------------|-----------------------------|-------------------|


  H        E   E  E   E       H         E    E  E   E     E  E  H        Q
---------------------------|---------------------------|---------------------|
---------------------------|---------------------------|---------------------|
--------------12-----------|---------------------------|---------------------|
--L------------------12br--|--L---------L--/10--9--10--|--9--5---------------|
---------------------------|---------------------------|--------5--------L---|
---------------------------|---------------------------|---------------------|


    H         Q    E  E     E  H        E  E  S  S
-------------------------|-------------------------|
-------------------------|-------------------------|
-------------------------|-------------------------|
--/10~--------L----9--9--|--L--7--------7--9--9-10-|
-------------------------|-------------------------|
-------------------------|-------------------------|


  E  Q    S  S E  Q      E      E   Q     Q     Q      E     W
----------------------------|-----------------------------|------------------|
----------------------------|-----------------------------|------------------|
----------------------------|-----------------------------|------------------|
--L--9----9-10-L--9----/14--|---L--12----10----12----/14--|--L---------------|
----------------------------|-----------------------------|------------------|
----------------------------|-----------------------------|------------------|


  H        E   E  E   E       H         H            W
---------------------------|----------------------|-------------------|
---------------------------|----------------------|-------------------|
--------------12-----------|----------------------|-------------------|
--L------------------12br--|--L---------Lb--------|--L----------------|
---------------------------|----------------------|-------------------|
---------------------------|----------------------|-------------------|


    H        Q    Q       H        H           Q    H        Q
|----------------------|--------------------|---------------------|
|----------------------|--------------------|---------------------|
|*---------------------|--------------------|---------------------|
|*---------------------|--------------------|---------------------|
|---0--------L----3----|--L--------5--------|--L------------------|
|----------------------|--------------------|-------5--------L----|


  H        Q    Q       H        H           Q    H        Q
---------------------|--------------------|----------------------||
---------------------|--------------------|----------------------||
---------------------|--------------------|---------------------*||
--7--------L----3----|--L--------5--------|--L----2--------L----*||
---------------------|--------------------|----------------------||
--7-------------3----|-----------5--------|-------2--------------||


  W                   W
-------------------|-------------------|-------------------|-----------------|
-------------------|-------------------|-------------------|-----------------|
-------------------|-------------------|-------------------|-----------------|
-------------------|-------------------|-------------------|-----------------|
--0----------------|--L----------------|-------------------|-----------------|
-------------------|-------------------|-------------------|-----------------|

2:25 - Still distorted. Two guitars are present, but now both are distorted. Here is the 
one.

      PM PM     PM PM PM PM     PM PM
  S S S  S  S S S  S  S  S  S S S  S  S S
------------------------------------------|
------------------------------------------|
------------------------------------------|
--3-5-------3-5-------------3-5-------3-5-|
--3-5-------3-5-------------3-5-------3-5-|
------0--0------0--0--0--0------0--0------|


  PM PM         PM PM     PM PM     PM PM
  S  S  S S S S S  S  S S S  S  S S S  S
------------------------------------------|
------------------------------------------|
------------------------------------------|
--------3-5-3-5-------3-5-------3-5-------|
--------3-5-3-5-------3-5-------3-5-------|
--0--0----------0--0------0--0------0--0--|


      PM PM     PM PM PM PM     PM PM
  S S S  S  S S S  S  S  S  S S S  S  S S
------------------------------------------|
------------------------------------------|
------------------------------------------|
--4-6-------4-6-------------4-6-------4-6-|
--4-6-------4-6-------------4-6-------4-6-|
------0--0------0--0--0--0------0--0------|


  PM PM         PM PM     PM PM     PM PM
  S  S  S S S S S  S  S S S  S  S S S  S
------------------------------------------|
------------------------------------------|
------------------------------------------|
--------4-6-4-6-------4-6-------4-6-------|
--------4-6-4-6-------4-6-------4-6-------|
--0--0----------0--0------0--0------0--0--|


      PM PM     PM PM PM PM     PM PM
  S S S  S  S S S  S  S  S  S S S  S  S S
------------------------------------------|
------------------------------------------|
------------------------------------------|
--5-7-------5-7-------------5-7-------5-7-|
--5-7-------5-7-------------5-7-------5-7-|
------0--0------0--0--0--0------0--0------|


  PM PM         PM PM     PM PM     PM PM
  S  S  S S S S S  S  S S S  S  S S S  S
------------------------------------------|
------------------------------------------|
------------------------------------------|
--------5-7-5-7-------5-7-------5-7-------|
--------5-7-5-7-------5-7-------5-7-------|
--0--0----------0--0------0--0------0--0--|


      PM PM     PM PM PM PM     PM PM
  S S S  S  S S S  S  S  S  S S S  S  S S
------------------------------------------|
------------------------------------------|
------------------------------------------|
--4-6-------4-6-------------4-6-------4-6-|
--4-6-------4-6-------------4-6-------4-6-|
------0--0------0--0--0--0------0--0------|


  PM PM         PM PM     PM PM     PM PM
  S  S  S S S S S  S  S S S  S  S S S  S      H         H
------------------------------------------|----------------------|
------------------------------------------|----------------------|
------------------------------------------|----------------------|
--------4-6-4-6-------4-6-------4-6-------|----------------------|
--------4-6-4-6-------4-6-------4-6-------|--10\-----------------|
--0--0----------0--0------0--0------0--0--|-------------5--------|


  H        Q     Q        H         H           H        H
----------------------|----------------------|---------------------|
----------------------|----------------------|---------------------|
----------------------|----------------------|---------------------|
----------------------|----------------------|---------------------|
----------------10----|--11\-----------------|---------------------|
--L--------L----------|-------------6--------|--L--------6\--------|


   H         H           H        Q     Q        H         H
----------------------|----------------------|----------------------|
----------------------|----------------------|----------------------|
----------------------|----------------------|----------------------|
----------------------|----------------------|----------------------|
--12\-----------------|----------------12----|--11\-----------------|
-------------7--------|--L--------L----------|-------------6--------|


                             PM PM PM PM PM PM PM    PM
  H        H              E  E  S  S  S  S  S  S  E  E  E
---------------------||------------------------------------|
---------------------||------------------------------------|
---------------------||*-----------------------------------|
---------------------||*--3-----------------------3-----4--|
---------------------||---0-----------------------0-----1--|
--L--------6\--------||---0--0--0--0--0--0--0--0--0--0--1--|


  PM PM PM PM PM PM PM PM    PM       PM PM PM PM PM PM PM PM    PM
  E  E  S  S  S  S  S  S  E  E  E     E  E  S  S  S  S  S  S  E  E  E
-----------------------------------|-----------------------------------|
-----------------------------------|-----------------------------------|
-----------------------------------|-----------------------------------|
--------------------------4-----3--|--------------------------7-----8--|
--------------------------1-----0--|--------------------------4-----5--|
--1--1--1--1--1--1--1--1--1--0--0--|--0--0--0--0--0--0--0--0--4--4--5--|


  PM PM PM    PM PM PM PM PM PM                                               3:03
  E  E  E  E  E  E  S  S  S  S       W                   Q    E  E  Q    E  E
---------------------------------||-------------------|-----------------------|
---------------------------------||-------------------|-----------------------|
--------------------------------*||-------------------|-----------------------|
-----------6--------------------*||-------------------|-----------------------|
-----------3---------------------||--5----------------|--L----3--5--6----3--5-|
--5--5--5--3--3--3--3--3--3--3---||-------------------|-----------------------|


  W                    E  S E  S E   E  S E  S E     W
-------------------|------------------------------|-------------------|
-------------------|------------------------------|-------------------|
-------------------|------------------------------|-------------------|
-------------------|------------------------------|--7----------------|
--6----------------|--10--L-9--L-6--10--L-9--L-6--|-------------------|
-------------------|------------------------------|-------------------|


  Q    E  E  Q    E  E     H        H            E  S E  S E   E  S E  S E
------------------------|--------------------|------------------------------|
------------------------|--------------------|------------------------------|
------------------------|--------------------|------------------------------|
--L----5--7--8----5--7--|--8-----------------|------------------------------|
------------------------|-----------6--------|--10--L-9--L-6--10--L-9--L-6--|
------------------------|--------------------|------------------------------|


  W                   Q    E  E  Q    E  E     W
-------------------|------------------------|-------------------|
-------------------|------------------------|-------------------|
--7----------------|--L----5--7--8----5--7--|--8----------------|
-------------------|------------------------|-------------------|
-------------------|------------------------|-------------------|
-------------------|------------------------|-------------------|


   E   S  E  S E   E   S  E  S E      W
----------------------------------|--------------------|
----------------------------------|--10----------------|
--12---L-11--L-8--12---L-11--L-8--|--------------------|
----------------------------------|--------------------|
----------------------------------|--------------------|
----------------------------------|--------------------|


  Q    E   E   Q    E   E      H        H
---------------------------|---------------------|
--L----8--10--11----8--10--|--11-----------------|
---------------------------|------------8--------|
---------------------------|---------------------|
---------------------------|---------------------|
---------------------------|---------------------|


                                   3:29       PM    PM
   E  S  E  S E   E  S  E  S E     E  E  E  E  E  E  E  E
--------------------------------|--------------------------|
--------------------------------|--------------------------|
--12--L-11--L-8--12--L-11--L-8--|--------------------------|
--------------------------------|-----------------8-----8--|
--------------------------------|--6--5--6--5-----5-----5--|
--------------------------------|--6--5--6--5--5--5--5--5--|


  PM PM PM PM PM PM PM    PM       PM PM PM PM PM PM PM    PM
  E  E  S  S  S  S  E  E  E  E     E  E  S  S  S  S  E  E  E  E
--------------------------------|--------------------------------|
--------------------------------|--------------------------------|
--------------------------------|--------------------------------|
-----------------------6-----5--|-----------------------6-----5--|
-----------------------3-----3--|-----------------------3-----3--|
--5--5--5--5--5--5--5--3--3--3--|--3--3--3--3--3--3--3--3--3--3--|


  PM PM PM    PM PM PM PM PM PM       PM PM PM PM PM PM PM    PM
  E  E  E  E  E  E  S  S  S  S     E  E  S  S  S  S  S  S  E  E  E
--------------------------------|-----------------------------------|
--------------------------------|-----------------------------------|
--------------------------------|-----------------------------------|
-----------5--------------------|--3-----------------------3-----4--|
-----------3--------------------|--0-----------------------0-----1--|
--3--3--3--3--3--3--3--3--3--3--|--0--0--0--0--0--0--0--0--0--0--1--|


  PM PM PM PM PM PM PM PM    PM       PM PM PM PM PM PM PM PM    PM
  E  E  S  S  S  S  S  S  E  E  E     E  E  S  S  S  S  S  S  E  E  E
-----------------------------------|-----------------------------------|
-----------------------------------|-----------------------------------|
-----------------------------------|-----------------------------------|
--------------------------4-----3--|--------------------------7-----8--|
--------------------------1-----0--|--------------------------4-----5--|
--1--1--1--1--1--1--1--1--1--0--0--|--0--0--0--0--0--0--0--0--4--4--5--|

                                    3:41
  PM PM PM PM    PM PM PM PM PM PM    PM PM PM      PM PM PM PM PM PM
  E  E  S  S  E  E  E  S  S  S  S     S  S  S  E  S E  S  S  S  S  S  E  S
-----------------------------------|---------------------------------------|
-----------------------------------|---------------------------------------|
-----------------------------------|---------------------------------------|
--------------6--------------------|---------------------------------------|
--------------3--------------------|---------------------------------------|
--5--5--5--5--3--3--3--3--3--3--3--|--0--0--0--0--L-0--0--0--0--0--0-------|


      PM PM PM PM PM PM PM PM PM         PM PM PM      PM PM PM PM PM PM
  S S S  S  S  S  E  S  S  S  S  Q       S  S  S  E  S E  S  S  S  S  S  E  S
--------------------------------------|---------------------------------------|
--------------------------------------|---------------------------------------|
--------------------------------------|---------------------------------------|
--------------------------------------|---------------------------------------|
--------------------------------------|---------------------------------------|
------0--0--0--0--0--0--0--0--0--0----|--0--0--0--0--L-0--0--0--0--0--0-------|


      PM PM PM PM PM PM PM PM PM         PM PM PM      PM PM PM PM PM PM
  S S S  S  S  S  E  S  S  S  S  Q       S  S  S  E  S E  S  S  S  S  S  E  S
--------------------------------------|---------------------------------------|
--------------------------------------|---------------------------------------|
--------------------------------------|---------------------------------------|
--------------------------------------|---------------------------------------|
--------------------------------------|---------------------------------------|
------0--0--0--0--0--0--0--0--0--0----|--0--0--0--0--L-0--0--0--0--0--0-------|


      PM PM PM PM PM PM PM PM PM         PM PM PM      PM PM PM PM PM PM
  S S S  S  S  S  E  S  S  S  S  Q       S  S  S  E  S E  S  S  S  S  S  E  S
--------------------------------------|--------------------------------------|
--------------------------------------|--------------------------------------|
--------------------------------------|--------------------------------------|
--------------------------------------|--------------------------------------|
--------------------------------------|--------------------------------------|
------0--0--0--0--0--0--0--0--0--0----|--0--0--0--0--L-0--0--0--0--0--0------|


      PM PM PM PM PM PM PM PM PM         PM PM PM      PM PM PM PM PM PM
  S S S  S  S  S  E  S  S  S  S  Q       S  S  S  E  S E  S  S  S  S  S  E  S
--------------------------------------|---------------------------------------|
--------------------------------------|---------------------------------------|
--------------------------------------|---------------------------------------|
--------------------------------------|---------------------------------------|
--------------------------------------|---------------------------------------|
------0--0--0--0--0--0--0--0--0--0----|--0--0--0--0--L-0--0--0--0--0--0-------|


      PM PM PM PM PM PM PM PM PM         PM PM PM      PM PM PM PM PM PM
  S S S  S  S  S  E  S  S  S  S  Q       S  S  S  E  S E  S  S  S  S  S  E  S
--------------------------------------|---------------------------------------|
--------------------------------------|---------------------------------------|
--------------------------------------|---------------------------------------|
--------------------------------------|---------------------------------------|
--------------------------------------|---------------------------------------|
------0--0--0--0--0--0--0--0--0--0----|--0--0--0--0--L-0--0--0--0--0--0-------|


      PM PM PM PM PM PM PM PM PM         PM PM PM      PM PM PM PM PM PM
  S S S  S  S  S  E  S  S  S  S  Q       S  S  S  E  S E  S  S  S  S  S  E  S
--------------------------------------|---------------------------------------|
--------------------------------------|---------------------------------------|
--------------------------------------|---------------------------------------|
--------------------------------------|---------------------------------------|
--------------------------------------|---------------------------------------|
------0--0--0--0--0--0--0--0--0--0----|--0--0--0--0--L-0--0--0--0--0--0-------|


      PM PM PM PM PM PM PM PM PM         PM PM PM      PM PM PM PM PM PM
  S S S  S  S  S  E  S  S  S  S  Q       S  S  S  E  S E  S  S  S  S  S  E  S
--------------------------------------|---------------------------------------|
--------------------------------------|---------------------------------------|
--------------------------------------|---------------------------------------|
--------------------------------------|---------------------------------------|
--------------------------------------|---------------------------------------|
------0--0--0--0--0--0--0--0--0--0----|--0--0--0--0--L-0--0--0--0--0--0-------|


      PM PM PM PM PM PM PM PM PM         PM PM PM      PM PM PM PM PM PM
  S S S  S  S  S  E  S  S  S  S  Q       S  S  S  E  S E  S  S  S  S  S  E  S
--------------------------------------|---------------------------------------|
--------------------------------------|---------------------------------------|
--------------------------------------|---------------------------------------|
--------------------------------------|---------------------------------------|
--------------------------------------|---------------------------------------|
------0--0--0--0--0--0--0--0--0--0----|--0--0--0--0--L-0--0--0--0--0--0-------|


      PM PM PM PM PM PM PM PM PM         PM PM PM      PM PM PM PM PM PM
  S S S  S  S  S  E  S  S  S  S  Q       S  S  S  E  S E  S  S  S  S  S  E  S
--------------------------------------|---------------------------------------|
--------------------------------------|---------------------------------------|
--------------------------------------|---------------------------------------|
--------------------------------------|---------------------------------------|
--------------------------------------|---------------------------------------|
------0--0--0--0--0--0--0--0--0--0----|--0--0--0--0--L-0--0--0--0--0--0-------|


      PM PM PM PM PM PM PM PM PM         PM PM PM      PM PM PM PM PM PM
  S S S  S  S  S  E  S  S  S  S  Q       S  S  S  E  S E  S  S  S  S  S  E  S
--------------------------------------|---------------------------------------|
--------------------------------------|---------------------------------------|
--------------------------------------|---------------------------------------|
--------------------------------------|---------------------------------------|
--------------------------------------|---------------------------------------|
------0--0--0--0--0--0--0--0--0--0----|--0--0--0--0--L-0--0--0--0--0--0-------|


      PM PM PM PM PM PM PM PM PM         PM PM PM      PM PM PM PM PM PM
  S S S  S  S  S  E  S  S  S  S  Q       S  S  S  E  S E  S  S  S  S  S  E  S
--------------------------------------|---------------------------------------|
--------------------------------------|---------------------------------------|
--------------------------------------|---------------------------------------|
--------------------------------------|---------------------------------------|
--------------------------------------|---------------------------------------|
------0--0--0--0--0--0--0--0--0--0----|--0--0--0--0--L-0--0--0--0--0--0-------|


      PM PM PM PM PM PM PM PM PM         PM PM PM      PM PM PM PM PM PM
  S S S  S  S  S  E  S  S  S  S  Q       S  S  S  E  S E  S  S  S  S  S  E  S
--------------------------------------|---------------------------------------|
--------------------------------------|---------------------------------------|
--------------------------------------|---------------------------------------|
--------------------------------------|---------------------------------------|
--------------------------------------|---------------------------------------|
------0--0--0--0--0--0--0--0--0--0----|--0--0--0--0--L-0--0--0--0--0--0-------|


      PM PM PM PM PM PM PM PM PM         PM PM PM      PM PM PM PM PM PM
  S S S  S  S  S  E  S  S  S  S  Q       S  S  S  E  S E  S  S  S  S  S  E  S
--------------------------------------|---------------------------------------|
--------------------------------------|---------------------------------------|
--------------------------------------|---------------------------------------|
--------------------------------------|---------------------------------------|
--------------------------------------|---------------------------------------|
------0--0--0--0--0--0--0--0--0--0----|--0--0--0--0--L-0--0--0--0--0--0-------|


  PM PM PM PM PM PM PM PM
  E  E  E  E  E  E  E  E
--------------------------|
--------------------------|
--------------------------|
--------------------------|
--------------------------|
--0--0--0--0--0--0--0--0--|

4:20 - Previous guitar goes to background and new (third) guitar comes in. This is the 
guitar.

   H         H           H        Q     Q        H         H
----------------------|----------------------|----------------------|
----------------------|----------------------|----------------------|
----------------------|----------------------|----------------------|
----------------------|----------------------|----------------------|
--10\-----------------|----------------10----|--11\-----------------|
-------------5--------|--L--------L----------|-------------6--------|


   E  S E  S E   E  S E  S E
------------------------------|
------------------------------|
------------------------------|
------------------------------|
--10--L-9--L-6--10--L-9--L-6--|
------------------------------|

4:26 - Distorted guitars stop and goes back to a clean guitar. This is the clean guitar.

  E  E  E  E  E  E  E  E     E  E  E  H        E     E  E  E  E  E  E  E  E
--------------------------|-----------------------|--------------------------|
--------------------------|-----------------------|--------------------------|
--------7--------6--------|--5--------2--------L--|--------7--------6--------|
-----7--------6--------5--|--------2--------------|-----7--------6--------8--|
--5--------4--------3-----|-----0-----------------|--5--------4--------6-----|
--------------------------|-----------------------|--------------------------|


  E  E  E  H        E     E  E  E  E  E  E  E  E     E  E  E  H        E
-----------------------|--------------------------|-----------------------|
-----------------------|--------------------------|-----------------------|
--8--------7--------L--|--------7--------6--------|--5--------2--------L--|
--------7--------------|-----7--------6--------5--|--------2--------------|
-----5-----------------|--5--------4--------3-----|-----0-----------------|
-----------------------|--------------------------|-----------------------|


  Q    E  Q    E  E  E     E  E  E  H        E     E  E  E  E  E  E  E  E
------------------------|-----------------------|--------------------------|
------------------------|-----------------------|--------------------------|
------------------------|-----------------------|--------7--------6--------|
------------------------|-----------------------|-----7--------6--------5--|
------------------------|--1--0-----------------|--5--------4--------3-----|
--6----L--5----L--2--3--|--------3--0--------L--|--------------------------|


  E  E  E  H        E     E  E  E  E  E  E  E  E     E  E  E  H        E
-----------------------|--------------------------|-----------------------|
-----------------------|--------------------------|-----------------------|
--5--------2--------L--|--------7--------6--------|--8--------7--------L--|
--------2--------------|-----7--------6--------8--|--------7--------------|
-----0-----------------|--5--------4--------6-----|-----5-----------------|
-----------------------|--------------------------|-----------------------|


  E  E  E  E  E  E  E  E     E  E  E  H        E     Q    E  Q    E  E  E
--------------------------|-----------------------|------------------------|
--------------------------|-----------------------|------------------------|
--------7--------6--------|--5--------2--------L--|------------------------|
-----7--------6--------5--|--------2--------------|------------------------|
--5--------4--------3-----|-----0-----------------|------------------------|
--------------------------|-----------------------|--6----L--5----L--2--3--|


  E  E  E  H        E     Q    Q    Q    Q       S S E  Q    Q    E  E
-----------------------|----------------------|-------------------------|
-----------------------|----------------------|-------------------------|
-----------------------|----------------------|-------------------------|
-----------------------|--4----L----3----L----|--3-4-3------------------|
--1--0-----------------|----------------------|---------6----L----5--3--|
--------3--0--------L--|----------------------|-------------------------|


  Q    Q    Q    Q       Q    Q    Q    Q       Q    Q    Q    Q
----------------------|----------------------|----------------------|
----------------------|----------------------|----------------------|
----------------------|--7----8----8----L----|----------------------|
----------------------|----------------------|--4----L----3----L----|
--5----L--------------|--5----6----6----L----|----------------------|
------------0----L----|----------------------|----------------------|


  S S E  Q    Q    E  E     Q    Q    Q    Q       Q    Q    Q    Q
-------------------------|----------------------|----------------------|
-------------------------|----------------------|----------------------|
-------------------------|----------------------|--8----7----7----L----|
--3-4-3------------------|----------------------|----------------------|
---------6----L----5--3--|--5----L--------------|--6----5----5----L----|
-------------------------|------------0----L----|----------------------|


  Q    Q    Q    Q       S S E  Q    Q    E  E     Q    Q    Q    Q
----------------------|-------------------------|----------------------|
----------------------|-------------------------|----------------------|
----------------------|-------------------------|----------------------|
--4----L----3----L----|--3-4-3------------------|----------------------|
----------------------|---------6----L----5--3--|--5----L--------------|
----------------------|-------------------------|------------0----L----|


  Q    Q    Q    Q       Q    Q    Q    Q       S S E  Q    Q    E  E
----------------------|----------------------|-------------------------|
----------------------|----------------------|-------------------------|
--7----8----8----L----|----------------------|-------------------------|
----------------------|--4----L----3----L----|--3-4-3------------------|
--5----6----6----L----|----------------------|---------6----L----5--3--|
----------------------|----------------------|-------------------------|


  Q    Q    Q    Q
----------------------|
----------------------|
----------------------|
----------------------|
--5----L--------------|
------------0----L----|

5:16 - Clean guitar stops. Two distorted guitars come in. This is the lead distortion.

  Q    Q    Q    Q       Q    Q    Q    Q       S S E  Q    Q    E  E
----------------------|----------------------|-------------------------|
----------------------|----------------------|-------------------------|
--8----7----7----L----|----------------------|-------------------------|
----------------------|--4----L----3----L----|--3-4-3------------------|
--6----5----5----L----|----------------------|---------6----L----5--3--|
----------------------|----------------------|-------------------------|


  Q    Q    Q    Q       Q    Q    Q    Q       Q    Q    Q    Q
----------------------|----------------------|----------------------|
----------------------|----------------------|----------------------|
----------------------|--7----8----8----L----|----------------------|
----------------------|----------------------|--4----L----3----L----|
--5----L--------------|--5----6----6----L----|----------------------|
------------0----L----|----------------------|----------------------|


  S S E  Q    Q    E  E     Q    Q    Q    Q       Q    Q    Q    Q
-------------------------|----------------------|----------------------|
-------------------------|----------------------|----------------------|
-------------------------|----------------------|--8----7----7----L----|
--3-4-3------------------|----------------------|----------------------|
---------6----L----5--3--|--5----L--------------|--6----5----5----L----|
-------------------------|------------0----L----|----------------------|


  Q    Q    Q    Q       S S E  Q    Q    E  E     Q    Q    Q    Q
----------------------|-------------------------|----------------------|
--7----L----6----L----|--6-7-6------------------|----------------------|
----------------------|---------8----L----7--5--|--7----L--------------|
----------------------|-------------------------|----------------------|
----------------------|-------------------------|----------------------|
----------------------|-------------------------|------------0----L----|


  Q    Q    Q    Q       Q    Q    Q    Q       S S E  Q    Q    E  E
----------------------|----------------------|-------------------------|
----------------------|--7----L----6----L----|--6-7-6------------------|
----------------------|----------------------|---------8----L----7--5--|
--3----4----4----L----|----------------------|-------------------------|
----------------------|----------------------|-------------------------|
----------------------|----------------------|-------------------------|


  Q    Q    Q    Q       Q    Q    Q    Q       W
----------------------|----------------------|-------------------|
----------------------|----------------------|-------------------|
--7----L--------------|----------------------|-------------------|
----------------------|--4----3----3----L----|--L----------------|
----------------------|----------------------|-------------------|
------------0----L----|----------------------|-------------------|

5:47 - Three guitars. Two distorted and one clean. This is basically the "solo". The
is the lead distorted guitar.

  W                     H         Q     E   E     E  H        E   E   S  S
-------------------|--/12~--------L----10--10--|--L--8--------8--10--10-12-|
-------------------|---------------------------|---------------------------|
-------------------|---------------------------|---------------------------|
--L----------------|---------------------------|---------------------------|
-------------------|---------------------------|---------------------------|
-------------------|---------------------------|---------------------------|


  E   Q     S  S E   Q      E     E   Q     Q     Q      E
--L--10----10-12-L--10----/17--|--L--15----12----15----/19--|
-------------------------------|----------------------------|
-------------------------------|----------------------------|
-------------------------------|----------------------------|
-------------------------------|----------------------------|
-------------------------------|----------------------------|


  W                   H        E   E  E   E      H         E    E   E   E
--L----------------|--L-----------19-----19--|--17------------/24--22--24--|
-------------------|-------------------------|-----------------------------|
-------------------|-------------------------|-----------------------------|
-------------------|-------------------------|---L---------L---------------|
-------------------|-------------------------|-----------------------------|
-------------------|-------------------------|-----------------------------|


   E   E   H        Q         H         Q     E   E
--22--19-----------------|--/12~--------L----10--10--|
----------20--------L----|---------------------------|
-------------------------|---------------------------|
-------------------------|---------------------------|
-------------------------|---------------------------|
-------------------------|---------------------------|


  E  H        E   E   S  S    E   Q     S  S E   Q      E
--L--8--------8--10--10-12-|--L--10----10-12-L--10----/17--|
---------------------------|-------------------------------|
---------------------------|-------------------------------|
---------------------------|-------------------------------|
---------------------------|-------------------------------|
---------------------------|-------------------------------|


  E   Q     Q     Q      E     W                   H        E   E  E   E
--L--15----12----15----/19--|--L----------------|--L-----------19-----19--|
----------------------------|-------------------|-------------------------|
----------------------------|-------------------|-------------------------|
----------------------------|-------------------|-------------------------|
----------------------------|-------------------|-------------------------|
----------------------------|-------------------|-------------------------|


   W                    W                     E   E   E   E   E   E   Q
--17b----------------|--L----------------|--/12--13--12--13--12--13--12----|
---------------------|-------------------|---------------------------------|
---------------------|-------------------|---------------------------------|
---L-----------------|-------------------|---------------------------------|
---------------------|-------------------|---------------------------------|
---------------------|-------------------|---------------------------------|


   E   S  S  E   E   E   E   S  S  S  S     S  S  Q    E  E  E   E   E
---L--12-13-15--13--12--13--12-13-10-12-|-------------------------------|
----------------------------------------|--13-12-10----L--------12--13--|
----------------------------------------|--------------------9----------|
----------------------------------------|-----------------9-------------|
----------------------------------------|-------------------------------|
----------------------------------------|-------------------------------|


   E   E   E   E  E   E  E  E     E  E  E  E  E  E  E  E
-------------------------------|--------------5--3--3--1--|
--12--10--12--10--8--10--8--6--|--8--6--3--5--5--3--3--1--|
-------------------------------|--------------------------|
-------------------------------|--------------------------|
-------------------------------|--------------------------|
-------------------------------|--------------------------|


  E  E  H        E  E     E  E  E  E  E  E   E  E
--1--0--0--------------|--7--------8--------10-----|
--1--0--0--------3--5--|-----5--6-----6--8------8--|
-----------------------|---------------------------|
-----------------------|---------------------------|
-----------------------|---------------------------|
-----------------------|---------------------------|


   E   E   E   E   E   E   E   E      E   E   E   E   E   E   E   E
------12----------15----------17--|----------19----------20--20--20--|
--10------10--13------13--15------|--15--17------17--18--------------|
----------------------------------|----------------------------------|
----------------------------------|----------------------------------|
----------------------------------|----------------------------------|
----------------------------------|----------------------------------|


   H          E    E   E     E     H         E   E   E   E
--20b--------20pb-----20pb--20--|--L--------20--19----------|
--------------------------------|-------------------17--18--|
--------------------------------|---------------------------|
--------------------------------|---------------------------|
--------------------------------|---------------------------|
--------------------------------|---------------------------|


   E   E   H        Q        E   E   E   E   E   E   E   E
-------------------------|--------------10--12--13----------|
--17--18--17--------L----|--10--12--13--------------13--15--|
-------------------------|----------------------------------|
-------------------------|----------------------------------|
-------------------------|----------------------------------|
-------------------------|----------------------------------|


   E   E   E   E   E   E   E   E      E   E   E   E   E   S S  S  S  E
------13--15--17--------------10--|--12--13--------------19---19-20-19--|
--17--------------10--12--13------|----------15--17--18-----------------|
----------------------------------|-------------------------------------|
----------------------------------|-------------------------------------|
----------------------------------|-------------------------------------|
----------------------------------|-------------------------------------|


   E   E   E   E   E   E   E   E      E   E   E   E   E   E   E   E
--------------10--12--13----------|------15--17--19--------------13--|
--10--12--13--------------15--17--|--18--------------13--15--17------|
----------------------------------|----------------------------------|
----------------------------------|----------------------------------|
----------------------------------|----------------------------------|
----------------------------------|----------------------------------|


   E   E   E   E   E   E   E   E      E   E   E   E   E   E   E   E
--15--17--------------15--17--19--|--20--19--20--19----------20--19--|
----------15--17--18--------------|------------------17--18----------|
----------------------------------|----------------------------------|
----------------------------------|----------------------------------|
----------------------------------|----------------------------------|
----------------------------------|----------------------------------|


   E   E   E   E   E   E   E   E      E   E   E   E   E   E   E   E
--20--19----------22--20--22--20--|----------22--20--22--20----------|
----------17--18------------------|--17--18------------------17--18--|
----------------------------------|----------------------------------|
----------------------------------|----------------------------------|
----------------------------------|----------------------------------|
----------------------------------|----------------------------------|


   E   E   E   E   E   E   E   E      E   E   E   E   E   E   E   E
--20--19--19--19--17--17--17--15--|--15--15--13--13--13--12--12--12--|
----------------------------------|----------------------------------|
----------------------------------|----------------------------------|
----------------------------------|----------------------------------|
----------------------------------|----------------------------------|
----------------------------------|----------------------------------|

                          7:01 - Back to this verse for a few runs

                                PM PM     PM PM PM PM     PM PM
   E   E   H        Q       S S S  S  S S S  S  S  S  S S S  S  S S
--12--13--12--------L----|------------------------------------------|
-------------------------|------------------------------------------|
-------------------------|------------------------------------------|
-------------------------|--3-5-------3-5-------------3-5-------3-5-|
-------------------------|--3-5-------3-5-------------3-5-------3-5-|
-------------------------|------0--0------0--0--0--0------0--0------|

  PM PM         PM PM     PM PM     PM PM
  S  S  S S S S S  S  S S S  S  S S S  S
------------------------------------------|
------------------------------------------|
------------------------------------------|
--------3-5-3-5-------3-5-------3-5-------|
--------3-5-3-5-------3-5-------3-5-------|
--0--0----------0--0------0--0------0--0--|


      PM PM     PM PM PM PM     PM PM
  S S S  S  S S S  S  S  S  S S S  S  S S
------------------------------------------|
------------------------------------------|
------------------------------------------|
--4-6-------4-6-------------4-6-------4-6-|
--4-6-------4-6-------------4-6-------4-6-|
------0--0------0--0--0--0------0--0------|


  PM PM         PM PM     PM PM     PM PM
  S  S  S S S S S  S  S S S  S  S S S  S
------------------------------------------|
------------------------------------------|
------------------------------------------|
--------4-6-4-6-------4-6-------4-6-------|
--------4-6-4-6-------4-6-------4-6-------|
--0--0----------0--0------0--0------0--0--|


      PM PM     PM PM PM PM     PM PM
  S S S  S  S S S  S  S  S  S S S  S  S S
------------------------------------------|
------------------------------------------|
------------------------------------------|
--5-7-------5-7-------------5-7-------5-7-|
--5-7-------5-7-------------5-7-------5-7-|
------0--0------0--0--0--0------0--0------|


  PM PM         PM PM     PM PM     PM PM
  S  S  S S S S S  S  S S S  S  S S S  S
------------------------------------------|
------------------------------------------|
------------------------------------------|
--------5-7-5-7-------5-7-------5-7-------|
--------5-7-5-7-------5-7-------5-7-------|
--0--0----------0--0------0--0------0--0--|


      PM PM     PM PM PM PM     PM PM
  S S S  S  S S S  S  S  S  S S S  S  S S
------------------------------------------|
------------------------------------------|
------------------------------------------|
--4-6-------4-6-------------4-6-------4-6-|
--4-6-------4-6-------------4-6-------4-6-|
------0--0------0--0--0--0------0--0------|


  PM PM         PM PM     PM PM     PM PM   7:13 Back to the solo
  S  S  S S S S S  S  S S S  S  S S S  S     Q    E  Q    E   Q
------------------------------------------|------------------------|
------------------------------------------|------------------10----|
------------------------------------------|--7----L--8----L--------|
--------4-6-4-6-------4-6-------4-6-------|------------------------|
--------4-6-4-6-------4-6-------4-6-------|------------------------|
--0--0----------0--0------0--0------0--0--|------------------------|

  H        E  E  E  E     Q    E  Q    E    Q        W
-----------------------|--------------------------|-------------------|
--L--------L-----------|--------------------------|-------------------|
--------------8--7--8--|--8----L--7----L--<>7~----|--L----------------|
-----------------------|--------------------------|-------------------|
-----------------------|--------------------------|-------------------|
-----------------------|--------------------------|-------------------|


  Q    E  Q    E  Q       H        Q    Q         H        Q     Q
-----------------------|-----------------------|------------------------|
-----------------------|-----------------------|------------------------|
--9----L--8----L--5----|--L--------L----7br----|--L--------L----10br----|
-----------------------|-----------------------|------------------------|
-----------------------|-----------------------|------------------------|
-----------------------|-----------------------|------------------------|


   H        H           E  S E  S S S E  S E    S E
---------------------|---------------------------------|
---------------------|---------------------------------|
---L--------8--------|--7----7----7---7----7pb----7pb--|
---------------------|---------------------------------|
---------------------|---------------------------------|
---------------------|---------------------------------|


  S E    S E    S E    S Q       E     E  Q    H         S  S
------------------------------------|-------------------------|
------------------------------------|-------------------------|
----7pb----7pb----7pb----7pbr----L--|--5--7----L--------14-12-|
------------------------------------|-------------------------|
------------------------------------|-------------------------|
------------------------------------|-------------------------|


   Q      E   S  S  H
-----------------------------|
-----------------------------|
--14b-----L--14-12-----------|
-------------------13--------|
-----------------------------|
-----------------------------|


   T  T  T  T  T  T  T  T  T  T  T  T  T  T  T  T  T  T  T  T  T  T  T  T  T  T
--10-10-10-10-10-11-11-11-11-11-10-10-10-10-10-11-11-11-11-11-14-14-14-14-14-11--|
---------------------------------------------------------------------------------|
---------------------------------------------------------------------------------|
---------------------------------------------------------------------------------|
---------------------------------------------------------------------------------|
---------------------------------------------------------------------------------|


   T  T  T  T  T  T  T  T  T  T  T  T  T  T  T  T  T  T  T  T  T  T  T  T  T  T
--14-14-14-15-15-15-15-15-14-14-14-14-14-15-15-15-15-15-18-18-18-18-18-17-17-17--|
---------------------------------------------------------------------------------|
---------------------------------------------------------------------------------|
---------------------------------------------------------------------------------|
---------------------------------------------------------------------------------|
---------------------------------------------------------------------------------|


   T  T  T  T  T  T  T  T  T  T  T  T  T  T  T  T  T  T  T  T  T  T  T  T  T  T
--15-17-17-17-17-17-13-13-13-13-13-15-15-15-15-15-------------------------------|
--------------------------------------------------15-15-15-15-15-16-16-16-16-16-|
--------------------------------------------------------------------------------|
--------------------------------------------------------------------------------|
--------------------------------------------------------------------------------|
--------------------------------------------------------------------------------|


   T  T  T  T T T T T T T T T T T T T T T T T T T T T Q
------------------------------------------------------------|
--11-11-11-11-7-7-7-7-7-8-8-8-8-8-3-3-3-3-3-4-4-4-4-4-------|
------------------------------------------------------7~----|
------------------------------------------------------------|
------------------------------------------------------------|
------------------------------------------------------------|

7:39

  E  E  E  S S E  E  E  E     E  S S E  E  S S E  S S  E
---------------------------|------------------------------|
---------------------------|------------------------------|
--5--7-----7-8-7-----5--7--|-----7-8-7-----5-7-8--7-8-10--|
---------------------------|------------------------------|
---------------------------|------------------------------|
---------------------------|------------------------------|


   E  E  E  E  E  E  E  E     E  E  E  E  H
---------------------------|-----------------------|
---------------------------|-----------------------|
--10--8-----8--7-----7--5--|-----5--7--8--7--------|
---------------------------|-----------------------|
---------------------------|-----------------------|
---------------------------|-----------------------|


   E  S  E  S  E  S  E  S  E   E      S  S  S  S  E   S  E   S  E   S  E  S
----------------------------------|-----------------------------------------|
----------------------------------|------------------------------------L----|
--14----14----14----14----12--14--|--14-15-14-12-14---L-15---L-14---L-12--L-|
----------------------------------|-----------------------------------------|
----------------------------------|-----------------------------------------|
----------------------------------|-----------------------------------------|


   Q    Q     H            S  S S  S  S  S S  S  S  S S  S  S S  E
-----------------------|--------------------------------------------|
--15----L----13--------|--11-10-8-10-11-10-8-10-11-10-8-10-11-8-10--|
-----------------------|--------------------------------------------|
-----------------------|--------------------------------------------|
-----------------------|--------------------------------------------|
-----------------------|--------------------------------------------|


   Q    E   Q    E   Q       E   Q    E   Q    Q
--------------------------|-------------------------|
--15----L-----------16----|--L-----------18----L----|
--------------------------|-------------------------|
-----------12----L--------|-----13----L-------------|
--------------------------|-------------------------|
--------------------------|-------------------------|


   Q    Q     Q     E   S  S     Q    E   S  S  H
-----------------------------|---------------------------|
--16----L-----L-----L--15-16-|--13----L--15-16-15--------|
-----------------------------|---------------------------|
-----------------------------|---------------------------|
-----------------------------|---------------------------|
-----------------------------|---------------------------|


   Q     E   Q     E   Q       E   Q    E   E   E  S  E  S
----------------------------|--------------15--17----17----|
--16-----L--15-----L--18----|--L--16----L------------------|
----------------------------|------------------------------|
----------------------------|------------------------------|
----------------------------|------------------------------|
----------------------------|------------------------------|


   Q      E   S  S  Q    Q        Q     E   S  S  Q    Q
--17b-----L--17-15------------|--20b----L--20-18------------|
-------------------15----L----|------------------16----L----|
------------------------------|-----------------------------|
------------------------------|-----------------------------|
------------------------------|-----------------------------|
------------------------------|-----------------------------|


   W                     H         Q      S  E  S
--22~----------------|---L--------20br----L-17--L-|
---------------------|----------------------------|
---------------------|----------------------------|
---------------------|----------------------------|
---------------------|----------------------------|
---------------------|----------------------------|


   E  S  E  S  E   Q    Q        E   S  E  S  E   H
--18--L-17--L----------------|-----------------------------|
--------------18--15----L----|--20---L-18--L---------------|
-----------------------------|---------------17------------|
-----------------------------|-------------------15--------|
-----------------------------|-----------------------------|
-----------------------------|-----------------------------|


   E   E   E   E   E   E   E   E      E   E   E   E   E   E   E   E
--18--17--17--17--18--17--17--17--|----------------------------------|
----------------------------------|--18--15--15--15--18--15--15--15--|
----------------------------------|----------------------------------|
----------------------------------|----------------------------------|
----------------------------------|----------------------------------|
----------------------------------|----------------------------------|

8:14

  S S E  E  E  E  E  E  E     S S E  E  E  E  E  E  E     W
---------------------------|---------------------------|-------------------|
---------------------------|---------------------------|-------------------|
--7-8-7--5--7--5--3--2--3--|--2-3-2-----2--------------|-------------------|
---------------------------|---------5-----5--3--5-----|-------------------|
---------------------------|------------------------3--|--5----------------|
---------------------------|---------------------------|-------------------|


                        NH
  W                     W                    W
-------------------|----------------------|-------------------|
-------------------|----------------------|-------------------|
-------------------|--<>5b----------------|--L----------------|
-------------------|----------------------|-------------------|
--L----------------|----------------------|-------------------|
-------------------|----------------------|-------------------|

8:24 - Back to this awesome rhythm (Play this on speakers with some good bass...that
bass just sounds amazing)

  PM PM PM      PM PM PM PM PM PM             PM PM PM PM PM PM PM PM PM
  S  S  S  E  S E  S  S  S  S  S  E  S    S S S  S  S  S  E  S  S  S  S  Q
---------------
Добавлено: 05.04.2012
Другие материалы по этой песне:

Страница создана 05.04.2012
http://primanota.ru/chimaira/the-heart-of-it-all-chords.htm
Привет, Гость.
Предлагаем пройти революционный курс по гитаре.
Подарок от PrimaNota.Ru, забирай!