PrimaNota.ru - самый крупный в мире бесплатный архив песенных текстов, аккордов, табулатур и нот


Chimaira - Impending Doom - таба, видео

Регистрация Запомнить меня
Войти через:  Facebook Google Twitter Vk Yandex Mail.ru

Chimaira - Impending Doom - таба, видео

Печатать
Просмотров: 199
Уроки эстрадного вокала в Санкт-Петербурге
Band: Chimaira
Song: Impending Doom
CD:   The Infection
Year: 2009
Tune: Drop C


   Intro is bass rumbling the low C open.

   Verse: Clean
D|-------------------------------------------|
A|---------------------------------10--------|
F|---777--9--9h10p9---7--7-9--9h10----10-9---|
C|-------------------------------------------|
G|-------------------------------------------|
C|-------------------------------------------|

                                             *distorted*
D|----------------------------------------------------------|
A|---------------------------------10-------------10--------|
F|---7--7-9--9h10p9---7--7-9--9h10----10-9---9h10----10-9---|
C|----------------------------------------------------------|
G|----------------------------------------------------------|
C|----------------------------------------------------------|


   Chorus:
D|----------------------------|
A|----------------------------|
F|---7--5--77-5-7----------7--|
C|---7--5--77-5-7----------7--|
G|---5--3--55-3-5----------5--|
C|----------------0-0-0-0-----|
 |
 |
D|----------------------------|
A|----------------------------|
F|---7--5--77-5-7----------7--|
C|---7--5--77-5-7----------7--|
G|---5--3--55-3-5----------5--|
C|----------------0-0-0-0-----|


   Verse: Clean
D|-------------------------------------------|
A|---------------------------------10--------|
F|---7--7-9--9h10p9---7--7-9--9h10----10-9---|
C|-------------------------------------------|
G|-------------------------------------------|
C|-------------------------------------------|

                                             *distorted*
D|----------------------------------------------------------|
A|---------------------------------10-------------10--------|
F|---7--7-9--9h10p9---7--7-9--9h10----10-9---9h10----10-9---|
C|----------------------------------------------------------|
G|----------------------------------------------------------|
C|----------------------------------------------------------|

   Chorus:
D|----------------------------|
A|----------------------------|
F|---7--5--77-5-7----------7--|
C|---7--5--77-5-7----------7--|
G|---5--3--55-3-5----------5--|
C|----------------0-0-0-0-----|
 |
 |
D|----------------------------|
A|----------------------------|
F|---7--5--77-5-7----------7--|
C|---7--5--77-5-7----------7--|
G|---5--3--55-3-5----------5--|
C|----------------0-0-0-0-----|


Bridge:
D|---
A|---
F|---
C|---
G|---
C|---000000
 |
 |
D|---
A|---
F|---
C|---
G|---
C|---


   Breakdown:
D|-----------------------------------|
A|-----------------------------------| *just repeat a few
F|-----------------------------------|  times with harmonics
C|---7-9-5-----3-5-1-----------------|  and also some bends
G|----------------------3-5-1--3-5---|  after each time through
C|---------000-------00--------3-5---|


   Chorus:
D|----------------------------|
A|----------------------------|
F|---7--5--77-5-7----------7--|
C|---7--5--77-5-7----------7--|
G|---5--3--55-3-5----------5--|
C|----------------0-0-0-0-----|
 |
 |
D|----------------------------|
A|----------------------------|
F|---7--5--77-5-7----------7--|
C|---7--5--77-5-7----------7--|
G|---5--3--55-3-5----------5--|
C|----------------0-0-0-0-----|

   Solo:
D|---------------------------------|
A|---------------------------------|
F|---101010-9-9--------------------|
C|--------------10-10h12-10-10-12--|
G|---------------------------------|
C|---------------------------------|
Добавлено: 19.10.2013
Другие материалы по этой песне:

Страница создана 11.09.2013
http://primanota.ru/chimaira/impending-doom-chords.htm
Привет, Гость.
Предлагаем пройти революционный курс по гитаре.
Подарок от PrimaNota.Ru, забирай!