PrimaNota.ru - самый крупный в мире бесплатный архив песенных текстов, аккордов, табулатур и нот


Chelsea Wolfe - Survive - таба, видео

Регистрация Запомнить меня
Войти через:  Facebook Google Twitter Vk Yandex Mail.ru

Chelsea Wolfe - Survive - таба, видео

Печатать
Просмотров: 365
Уроки эстрадного вокала в Санкт-Петербурге
-------------------------------------------------------------------------------
                         SURVIVE - Chelsea Wolfe
-------------------------------------------------------------------------------
Tabbed by: TOMMYGULLY2012

Tuning: Drop C - (CGcFAd)

d|---------------------------------------------------------------------------|
A|---------------------------------------------------------------------------|
F|--(If you know the pattern, the number of times you play each fret goes;)--|
c|-(5 times)-----(7 times)--------(7 times)--------(8 times)-----------------|
G|--0-0-0-0-0-0-0-0-0-0-0-0-0-0-0-0-0-0-0-0-0-0-0-0-0-0-0-0-0-0-0------------|
C|-7-7-7-7-7-5-3-3-3-3-3-3-3-5-2-2-2-2-2-2-2-3-0-0-0-0-0-0-0-0-0-------------|

This is basically the most part of the song until the last bit, but for this
riff, sometimes you can add an open 'c' string to add variety, which she does
in the song as well as a few more fret noises which she exaggerates.

Outro (Played on a synth) [Can be played as power chords]
d|---------------------------------------------------------------------------|
A|---------------------------------------------------------------------------|
F|---------------------------------------------------------------------------|
C|---------------------------------------------------------------------------|
G|---------------------------------------------------------------------------|
C|-7-7-7-7-7-10-12-12-12-12-12-12-12-10-8-8-8-8-8-8-10-7-7-7-7-7-7-7-7--(x3)-|

d|---------------------------------------------------------------------------|
A|---------------------------------------------------------------------------|
F|---------------------------------------------------------------------------|
C|---------------------------------------------------------------------------|
G|---------------------------------------------------------------------------|
C|-7-7-7-7-7-10-12-12-12-12-12-12-12-10-8-8-8-8-8-8-10-7-7-7-7-0-------------|

************************************

| /   slide up
| \   slide down
| h   hammer-on
| p   pull-off
| ~   vibrato
| +   harmonic
| x   Mute note
| b   Bend
| pb  Pre-bend
| br  Bend release
| pbr Pre-bend release
| brb Bend release bend

************************************
Добавлено: 23.05.2016
Другие материалы по этой песне:
  • Аккорды и текст

Страница создана 23.05.2016
http://primanota.ru/chelsea-wolfe/survive-chords.htm
Привет, Гость.
Предлагаем пройти революционный курс по гитаре.
Подарок от PrimaNota.Ru, забирай!