PrimaNota.ru - самый крупный в мире бесплатный архив песенных текстов, аккордов, табулатур и нот


Chelsea Wolfe - Flatlands - таба, видео

Регистрация Запомнить меня
Войти через:  Facebook Google Twitter Vk Yandex Mail.ru

Chelsea Wolfe - Flatlands - таба, видео

Печатать
Просмотров: 635
Авторы: Chelsea Wolfe

**First Tab**
The song is played on a Spanish guitar, so if you're on any other guitar bear with
the slightly different sound. It's still beautiful imo.

Tuning: Half-Step Down
b = bend; v = vibrato

Eb|---------------------------------|
Bb|---------------------------------|
Gb|--------0--------0--------2bv----|
Db|-----2--------2--------2-------2-|
Ab|--3--------3--------0------------|
Eb|---------------------------------|


Eb|--------------------------------------|
Bb|--------1--------0--------------------|
Gb|--------------------------2--------0--|
Db|-----2--------2--------2--------2-----|
Ab|--3--------3--------0--------0--------|
Eb|--------------------------------------|
(This part may be off a bit but sounds alright to my novice ears.)

Lyrics:

I want flatlands
I never cared about money and all its friends
I want flatlands
I want flatlands
I don't want precious stones
I never cared about anything you've ever owned
I want flatlands
I want simplicity
I need your arms wrapped hard around me
I want open plains and scattered trees
I want flower fields
I want salty seas
I want flatlands soft and steady breeze
bringing scents of lined-up orchard trees
dripping heavy with pears and dancing leaves
I want flatlands
will you go there with me
when it's said in the dark and you know it's always there
when it's dead in our heart but your mind is unafraid
when it's said in the dark and you know it's never coming back
when it's there in your heart in your mind you set it free

For Ajee'.
Добавлено: 09.11.2013
Другие материалы по этой песне:
  • Аккорды и текст

Страница создана 11.10.2013
http://primanota.ru/chelsea-wolfe/flatlands-chords.htm
Привет, Гость.
Предлагаем пройти революционный курс по гитаре.
Подарок от PrimaNota.Ru, забирай!