PrimaNota.ru - самый крупный в мире бесплатный архив песенных текстов, аккордов, табулатур и нот


Carole King - Stand Behind Me - текст песни, бас-таба, видео

Регистрация Запомнить меня
Войти через:  Facebook Google Twitter Vk Yandex Mail.ru

Carole King - Stand Behind Me - текст песни, бас-таба, видео

Печатать
Просмотров: 26
Новый альбом группы 'Черный Кузнец' по культовому сериалу 'Сверхъестественное'!
Авторы музыки: Carole King
Авторы текста: Carole King
  [Intro]
G|----------------|----------------|----------------|----------------|
D|----------------|----------------|----------------|1-----1---------|
A|----------------|----------------|1-----1---------|----------------|
E|4-----4-4-------|4-----4-4-------|----------------|----------------|

  [Verse]       talk to             need             self
G|----------------|----------------|----------------|----------------|
D|----------------|----------------|2-----2-2-------|2-----2-2-------|
A|----------------|2-----2-2-------|----------------|----------------|
E|4-----4---------|----------------|----------------|----------------|

G|----------------|----------------|----------------|----------------|
D|----------------|1-----1-1-------|----------------|------------1---|
A|1-----1-1-------|----------------|----------------|--------1-------|
E|----------------|----------------|4-----4-4-------|4-----4---------|

  [Verse]
G|----------------|----------------|----------------|----------------|
D|----------------|----------------|2-----2-2-------|2-----2-2-------|
A|----------------|2-----2-2-------|----------------|----------------|
E|4-----4---------|----------------|----------------|----------------|

G|----------------|----------------|----------------|----------------|
D|----------------|1-----1-1-------|----------------|------------1---|
A|1-----1-1-------|----------------|----------------|--------1-------|
E|----------------|----------------|4-----4-4-------|4---4-----------|

G|----------------|----------------|----------------|----------------|
D|----------------|----------------|1-----1-1-------|----------------|
A|4-----4-4-------|----------------|----------------|----------------|
E|----------------|2-----2-2-------|----------------|4-----4-4-------|

G|----------------|----------------|----------------|----------------|
D|----------------|----------------|1-----1-1-------|----------------|
A|4-----4-4-------|----------------|----------------|----------------|
E|----------------|2-----2-2-------|----------------|4-----4-4-------|

G|----------------|----------------|----------------|----------------|
D|----------------|----------------|----------------|1-----1-1-------|
A|4-----4-4-------|4-----4-4-------|1-----1-1-------|----------------|
E|----------------|----------------|----------------|----------------|

  [Verse]
G|----------------|----------------|----------------|----------------|
D|----------------|----------------|2-----2-2-------|2-----2-2-------|
A|----------------|2-----2-2-------|----------------|----------------|
E|4-----4---------|----------------|----------------|----------------|

G|----------------|----------------|----------------|----------------|
D|----------------|1-----1-1-------|----------------|3-----3-3-------|
A|1-----1-1-------|----------------|3-----3-3-------|----------------|
E|----------------|----------------|----------------|----------------|

G|----------------|----------------|----------------|----------------|
D|----------------|----------------|----------------|3-----3-3-------|
A|1-----1-1-------|4-----4-4-------|3-----3-3-------|----------------|
E|----------------|----------------|----------------|----------------|

G|----------------|----------------|----------------|----------------|
D|----------------|----------------|----------------|------------1---|
A|1-----1-1-------|4-----4-4-------|----------------|--------1-------|
E|----------------|----------------|4-----4-4-------|4---4-----------|

  [Break]
G|----------------|----------------|----------------|----------------|
D|----------------|----------------|2-----------2---|2-----------2---|
A|----------------|2-----------2---|----------------|----------------|
E|4-----------4---|----------------|----------------|----------------|

G|----------------|----------------|----------------|----------------|
D|----------------|1-----------1---|----------------|3-----3-3-------|
A|1-----------1---|----------------|3---------------|----------------|
E|----------------|----------------|----------------|----------------|

G|----------------|----------------|----------------|----------------|
D|----------------|----------------|----------------|3-----3-3-------|
A|1-----1-1-------|4-----4-4-------|3-----3-3-------|----------------|
E|----------------|----------------|----------------|----------------|

G|----------------|----------------|----------------|----------------|
D|----------------|----------------|----------------|--------1-------|
A|1-----1-1-------|4-----4-4-------|----------------|----------------|
E|----------------|----------------|4-----4-4-------|4-----4---------|

G|----------------|----------------|----------------|----------------|
D|----------------|--------1-------|----------------|----------------|
A|----------------|----------------|----------------|----------------|
E|4-----4-4-------|4-----4---------|4-----4-4-------|4-------4-------|

G|----------------|
D|----------------|
A|----------------|
E|4---------------|
Добавлено: 20.03.2018
Другие материалы по этой песне:
  • Аккорды и текст

Страница создана 19.03.2012
http://primanota.ru/carole-king/stand-behind-me-chords.htm
Привет, Гость.
Предлагаем пройти революционный курс по гитаре.
Подарок от PrimaNota.Ru, забирай!