PrimaNota.ru - самый крупный в мире бесплатный архив песенных текстов, аккордов, табулатур и нот


Carole King - Time Gone By - текст песни, бас-таба, видео

Регистрация Запомнить меня
Войти через:  Facebook Google Twitter Vk Yandex Mail.ru

Carole King - Time Gone By - текст песни, бас-таба, видео

Печатать
Просмотров: 36
Новый альбом группы 'Черный Кузнец' по культовому сериалу 'Сверхъестественное'!
  [Intro]
G|----------------|----------------|----------------|----------------|
D|2---------------|----------------|------2---------|------0---------|
A|----------------|----------------|----2-----------|0-------0-------|
E|----------------|----------------|0-3-------------|----------------|

G|----------------|----------------|----------------|----------------|
D|2-----2-----2---|----------------|2-----2---------|----------------|
A|----------------|0---------------|----------------|0-----0---------|
E|----------------|----------------|----------------|----------------|

  [Verse]
G|----------------|----------------|----------------|----------------|
D|2-----2-2-------|----------------|2-----2-2-------|----------------|
A|----------------|0-----0-0---0---|----------------|0-----0-0---0---|
E|----------------|----------------|----------------|----------------|

G|----------------|----------------|----------------|----------------|
D|2-----2-2-------|----------------|2-----2-2-------|----------------|
A|----------------|0-----0-0---0---|----------------|0-----0-0---0---|
E|----------------|----------------|----------------|----------------|

G|----------------|----------------|----------------|----------------|
D|2-----2-2-------|----------------|2-----2-2-------|----------------|
A|----------------|0-----0-0---0---|----------------|0-----0-0---0---|
E|----------------|----------------|----------------|----------------|

G|----------------|----------------|----------------|----------------|
D|2-----2-2-------|----------------|2-----2-2---2---|2-----2-2---2---|
A|----------------|0-----0-0---0---|----------------|----------------|
E|----------------|----------------|----------------|----------------|

  [Chorus]
G|----------------|----------------|----------------|----------------|
D|0-----0-0---0---|0-----0-0---0---|----------------|----------------|
A|----------------|----------------|----------------|0-----0-0---0---|
E|----------------|----------------|3-----3-3---3---|----------------|

G|----------------|----------------|----------------|----------------|
D|0-----0-0---0---|0-----0-0---0---|----------------|----------------|
A|----------------|----------------|----------------|3-----3-3-------|
E|----------------|----------------|3-----3-3---3---|----------------|

G|----------------|----------------|----------------|----------------|
D|2-----2-2---2---|----------------|2-----------2---|----------------|
A|----------------|0-----------0-2-|----------------|0-----------0---|
E|----------------|----------------|----------------|----------------|

G|----------------|----------------|
D|2-----------2---|----------------|
A|----------------|0-------0-------|
E|----------------|----------------|

  [Verse]
G|----------------|----------------|----------------|----------------|
D|2-----2-2-------|----------------|2-----2-2-------|----------------|
A|----------------|0-----0-0---0---|----------------|0-----0-0---0---|
E|----------------|----------------|----------------|----------------|

G|----------------|----------------|----------------|----------------|
D|2-----2-2-------|----------------|2-----2-2-------|----------------|
A|----------------|0-----0-0---0---|----------------|0-----0-0---0---|
E|----------------|----------------|----------------|----------------|

G|----------------|----------------|----------------|----------------|
D|2-----2-2-------|----------------|2-----2-2-------|----------------|
A|----------------|0-----0-0---0---|----------------|0-----0-0---0---|
E|----------------|----------------|----------------|----------------|

G|----------------|----------------|----------------|----------------|
D|2-----2-2-------|----------------|2-----2-2---2---|2-----2-2---2---|
A|----------------|0-----0-0---0---|----------------|----------------|
E|----------------|----------------|----------------|----------------|

  [Chorus]
G|----------------|----------------|----------------|----------------|
D|0-----0-0---0---|0-----0-0---0---|----------------|----------------|
A|----------------|----------------|----------------|0-----0-0---0---|
E|----------------|----------------|3-----3-3---3---|----------------|

G|----------------|----------------|----------------|----------------|
D|0-----0-0---0---|0-----0-0---0---|----------------|----------------|
A|----------------|----------------|----------------|3-----3-3-------|
E|----------------|----------------|3-----3-3---3---|----------------|

G|----------------|----------------|----------------|----------------|
D|2-----2-2---2---|----------------|2-----------2---|----------------|
A|----------------|0-----------0-2-|----------------|0-----------0---|
E|----------------|----------------|----------------|----------------|

G|----------------|----------------|
D|2-----------2---|----------------|
A|----------------|0-------0-------|
E|----------------|----------------|

  [Verse]
G|----------------|----------------|----------------|----------------|
D|2-----2-2-------|----------------|2-----2-2-------|----------------|
A|----------------|0-----0-0---0---|----------------|0-----0-0---0---|
E|----------------|----------------|----------------|----------------|

G|----------------|----------------|----------------|----------------|
D|2-----2-2-------|----------------|2-----2-2-------|----------------|
A|----------------|0-----0-0---0---|----------------|0-----0-0---0---|
E|----------------|----------------|----------------|----------------|

G|----------------|----------------|----------------|----------------|
D|2-----2-2-------|----------------|2-----2-2-------|----------------|
A|----------------|0-----0-0---0---|----------------|0-----0-0---0---|
E|----------------|----------------|----------------|----------------|

G|----------------|----------------|----------------|----------------|
D|2-----2-2-------|----------------|2-----2-2---2---|2-----2-2---2---|
A|----------------|0-----0-0---0---|----------------|----------------|
E|----------------|----------------|----------------|----------------|

  [Chorus]
G|----------------|----------------|----------------|----------------|
D|0-----0-0---0---|0-----0-0---0---|----------------|----------------|
A|----------------|----------------|----------------|0-----0-0---0---|
E|----------------|----------------|3-----3-3---3---|----------------|

G|----------------|----------------|----------------|----------------|
D|0-----0-0---0---|0-----0-0---0---|----------------|----------------|
A|----------------|----------------|----------------|3-----3-3-------|
E|----------------|----------------|3-----3-3---3---|----------------|

G|----------------|----------------|----------------|----------------|
D|2-----2-2---2---|----------------|0-----0-0-------|0-----0-0-------|
A|----------------|0---------------|----------------|----------------|
E|----------------|----------------|----------------|----------------|

  [Outro]
G|----------------|----------------|----------------|----------------|
D|2-----2-2-------|----------------|2-----2-2-------|----------------|
A|----------------|0-------0-------|----------------|0-------0-------|
E|----------------|----------------|----------------|----------------|

G|----------------|----------------|----------------|----------------|
D|2-----2-2-------|----------------|2-----2-2-------|----------------|
A|----------------|0-------0-------|----------------|0-------0-------|
E|----------------|----------------|----------------|----------------|
  
  Keep repeating the above 4 hars

  [Last 2 bars]
G|----------------|----------------|
D|2---------------|----------------|
A|----------------|0---------------|
E|----------------|----------------|
Добавлено: 20.03.2018
Другие материалы по этой песне:
  • Аккорды и текст

Страница создана 28.03.2012
http://primanota.ru/carole-king/time-gone-by-chords.htm
Привет, Гость.
Предлагаем пройти революционный курс по гитаре.
Подарок от PrimaNota.Ru, забирай!