PrimaNota.ru - самый крупный в мире бесплатный архив песенных текстов, аккордов, табулатур и нот


Carole King - Wasn' T Born To Follow - текст песни, бас-таба, видео

Регистрация Запомнить меня
Войти через:  Facebook Google Twitter Vk Yandex Mail.ru

Carole King - Wasn' T Born To Follow - текст песни, бас-таба, видео

Печатать
Просмотров: 33
Новый альбом группы 'Черный Кузнец' по культовому сериалу 'Сверхъестественное'!
  [Intro]
G|--------|
D|--------|
A|--------|
E|0---0---|

G|----------------|----------------|----------------|----------------|
D|----------------|----------------|----------------|----------------|
A|----------------|----------------|----------------|--------0-------|
E|0---0---0---0---|0---0---0---0---|0---0---0---0---|0---0-----------|

  [Verse]
G|----------------|----------------|----------------|----------------|
D|----------------|----------------|----------------|----------------|
A|0-------0-------|0-------0-------|0-------0-------|0-------0-------|
E|----0-------0---|----0-------0---|----0-------0---|----0-------0---|

G|----------------|----------------|----------------|----------------|
D|----------------|----------------|----------------|----------------|
A|0-------0-------|0-------0-------|----2-------2---|----2-------2---|
E|----0-------0---|----0-------0---|0-------0-------|0-------0-------|

G|----------------|----------------|
D|----------------|----------------|
A|0-------0-------|0-------0-------|
E|----0-------0---|----0-------0---|

  [Verse]
G|----------------|----------------|----------------|----------------|
D|----------------|----------------|----------------|----------------|
A|0-------0-------|0-------0-------|0-------0-------|0-------0-------|
E|----0-------0---|----0-------0---|----0-------0---|----0-------0---|

G|----------------|----------------|----------------|----------------|
D|----------------|----------------|----------------|----------------|
A|0-------0-------|0-------0-------|----2-------2---|----2-------2---|
E|----0-------0---|----0-------0---|0-------0-------|0-------0-------|

G|----------------|----------------|
D|----------------|----------------|
A|0-------0-------|0-------0-------|
E|----0-------0---|----0-------0---|

  [Verse]
G|----------------|----------------|----------------|----------------|
D|----------------|----------------|----------------|----------------|
A|0-------0-------|0-------0-------|0-------0-------|0-------0-------|
E|----0-------0---|----0-------0---|----0-------0---|----0-------0---|

G|----------------|----------------|----------------|----------------|
D|----------------|----------------|----------------|----------------|
A|0-------0-------|0-------0-------|----2-------2---|----2-------2---|
E|----0-------0---|----0-------0---|0-------0-------|0-------0-------|

G|----------------|----------------|
D|----------------|----------------|
A|0-------0-------|0-------0-------|
E|----0-------0---|----0-------0---|

  [Bridge]
G|----------------|----------------|----------------|----------------|
D|----------------|----------------|----------------|----------------|
A|0-------0-------|0-------0-------|0-------0-------|0-------0-------|
E|----0-------0---|----0-------0---|----0-------0---|----0-------0---|

G|----------------|----------------|----------------|----------------|
D|----------------|----------------|0-------0-------|0-------0-------|
A|----2-------2---|----2-------2---|----0-------0---|----0-------0---|
E|0-------0-------|0-------0-------|----------------|----------------|

G|----------------|----------------|----------------|----------------|
D|----------------|----------------|----------------|----------------|
A|0-------0-------|0-------0-------|0-------0-------|0-------0-------|
E|----0-------0---|----0-------0---|----0-------0---|----0-------0---|

  [Verse]
G|----------------|----------------|----------------|----------------|
D|----------------|----------------|----------------|----------------|
A|0-------0-------|0-------0-------|0-------0-------|0-------0-------|
E|----0-------0---|----0-------0---|----0-------0---|----0-------0---|

G|----------------|----------------|----------------|----------------|
D|----------------|----------------|----------------|----------------|
A|0-------0-------|0-------0-------|----2-------2---|----2-------2---|
E|----0-------0---|----0-------0---|0-------0-------|0-------0-------|

G|----------------|----------------|
D|----------------|----------------|
A|0-------0-------|0-------0-------|
E|----0-------0---|----0-------0---|

  [Outro]
G|----------------|----------------|----------------|----------------|
D|----------------|----------------|----------------|----------------|
A|0-------0-------|0-------0-------|0-------0-------|0-------0-------|
E|----0-------0---|----0-------0---|----0-------0---|----0-------0---|

G|----------------|----------------|----------------|----------------|
D|----------------|----------------|0-------0-------|0-------0-------|
A|----2-------2---|----2-------2---|----0-------0---|----0-------0---|
E|0-------0-------|0-------0-------|----------------|----------------|

G|----------------|----------------|----------------|----------------|
D|----------------|----------------|----------------|----------------|
A|0-------0-------|0-------0-------|0-------0-------|0-------0-------|
E|----0-------0---|----0-------0---|----0-------0---|----0-------0---|

G|----------------|----------------|----------------|----------------|
D|----------------|----------------|----------------|0-------0-------|
A|0-------0-------|0-------0-------|----2------2----|----0-------0---|
E|----0-------0---|----0-------0---|0-------0-------|----------------|

G|----------------|----------------|----------------|----------------|
D|0-------0-------|0-------0-------|----------------|----------------|
A|----0-------0---|----0-------0---|0-------0-------|0-------0-------|
E|----------------|----------------|----0-------0---|----0-------0---|
Добавлено: 20.03.2018
Другие материалы по этой песне:
  • Аккорды и текст

Страница создана 11.03.2012
http://primanota.ru/carole-king/wasn-t-born-to-follow-chords.htm
Привет, Гость.
Предлагаем пройти революционный курс по гитаре.
Подарок от PrimaNota.Ru, забирай!