PrimaNota.ru - самый крупный в мире бесплатный архив песенных текстов, аккордов, табулатур и нот


Carole King - Too Much Rain - текст песни, бас-таба, видео

Регистрация Запомнить меня
Войти через:  Facebook Google Twitter Vk Yandex Mail.ru

Carole King - Too Much Rain - текст песни, бас-таба, видео

Печатать
Просмотров: 41
Новый альбом группы 'Черный Кузнец' по культовому сериалу 'Сверхъестественное'!
Авторы музыки: Carole King, Toni Stern
Авторы текста: Carole King, Toni Stern
  [Verse]
  If    asks how   I am             just 
G|----------|----------------|----------------|----------------|
D|----------|1-----1-1-----1-|1-----1-1-------|----------------|
A|----------|----------------|----------------|----------------|
E|----------|----------------|----------------|4-----4-4-----4-|

G|----------------|----------------|----------------|----------------|
D|----------------|----------------|----------------|1-----1-1-----1-|
A|----------------|----------------|1-----1-1-------|----------------|
E|4-----4-4---3---|1-----1-1-----1-|----------------|----------------|

G|----------------|
D|1---------------|
A|----------------|
E|----------------|

G|----------------|----------------|----------------|----------------|
D|1-----1-1-----1-|1-----1-1-------|----------------|----------------|
A|----------------|----------------|----------------|----------------|
E|----------------|----------------|4-----4-4-----4-|4-----4-4-----4-|

G|----------------|----------------|----------------|----------------|
D|----------------|----------------|----------------|----------------|
A|------------1---|1-----1-1-------|----------------|----------------|
E|1-----1-1-------|----------------|4-----4-4-----4-|4-----4-4---4---|

  [Chorus]
G|----------------|----------------|----------------|----------------|
D|1-1---1-1-----1-|1-1---1-1---1---|----------------|----------------|
A|----------------|----------------|----------------|----------------|
E|----------------|----------------|4-4---4-4-----4-|4-4---4-4---4---|

G|----------------|----------------|----------------|----------------|
D|1-1---1-1-----1-|1-------1-------|----------------|----------------|
A|----------------|----------------|----------------|----------------|
E|----------------|----------------|4-----4-4-----4-|4---------------|

  [Break]
G|----------------|----------------|----------------|----------------|
D|1-----1-1-----1-|1-----1-1-------|----------------|----------------|
A|----------------|----------------|----------------|----------------|
E|----------------|----------------|4-----4-4-----4-|4---------------|

G|----------------|----------------|----------------|----------------|
D|1-----1-1-----1-|1-----1-1-------|----------------|----------------|
A|----------------|----------------|--------4-----4-|----------------|
E|----------------|----------------|4-----4---------|4---------------|

  [Verse] 
G|----------------|----------------|----------------|----------------|
D|1-----1-1-----1-|1-----1-1-------|----------------|----------------|
A|----------------|----------------|----------------|----------------|
E|----------------|----------------|4-----4-4-----4-|4-----4-4---3---|

G|----------------|----------------|----------------|----------------|
D|----------------|----------------|1-----1-1-----1-|1---------------|
A|----------------|1-----1-1-------|----------------|----------------|
E|1-----1-1-----1-|----------------|----------------|----------------|

G|----------------|----------------|----------------|----------------|
D|1-----1-1-----1-|1-----1-1-------|----------------|----------------|
A|----------------|----------------|----------------|----------------|
E|----------------|----------------|4-----4-4-----4-|4-----4-4-----4-|

G|----------------|----------------|----------------|----------------|
D|----------------|----------------|----------------|----------------|
A|------------1---|1-----1-1-------|----------------|----------------|
E|1-----1-1-------|----------------|4-----4-4-----4-|4-----4-4---4---|

  [Chorus]
G|----------------|----------------|----------------|----------------|
D|1-1---1-1-----1-|1-1---1-1---1---|----------------|----------------|
A|----------------|----------------|----------------|----------------|
E|----------------|----------------|4-4---4-4-----4-|4-4---4-4---4---|

G|----------------|----------------|----------------|----------------|
D|1-1---1-1-----1-|1-------1-------|----------------|----------------|
A|----------------|----------------|----------------|----------------|
E|----------------|----------------|4-----4-4-----4-|4---------------|

  [Outro]
G|----------------|----------------|----------------|----------------|
D|1-1---1-1-----1-|1-1---1-1---1---|----------------|----------------|
A|----------------|----------------|----------------|----------------|
E|----------------|----------------|4-4---4-4-----4-|4-4---4-4---4---|

G|----------------|----------------|----------------|----------------|
D|1-1---1-1-----1-|1-------1-------|----------------|----------------|
A|----------------|----------------|----------------|----------------|
E|----------------|----------------|4-----4-4-----4-|4---------------|
 
  Keep repeating the above 8 bars
Добавлено: 20.03.2018
Другие материалы по этой песне:
  • Аккорды и текст

Страница создана 01.05.2012
http://primanota.ru/carole-king/too-much-rain-chords.htm
Привет, Гость.
Предлагаем пройти революционный курс по гитаре.
Подарок от PrimaNota.Ru, забирай!