PrimaNota.ru - самый крупный в мире бесплатный архив песенных текстов, аккордов, табулатур и нот


Carole King - Snow Queen - текст песни, бас-таба, видео

Регистрация Запомнить меня
Войти через:  Facebook Google Twitter Vk Yandex Mail.ru

Carole King - Snow Queen - текст песни, бас-таба, видео

Печатать
Просмотров: 39
Новый альбом группы 'Черный Кузнец' по культовому сериалу 'Сверхъестественное'!
Авторы музыки: Carole King
Авторы текста: Gerry Goffin
  [Intro]
G|------------|------------|------------|------------|
D|0-----------|------------|0-----------|------------|
A|------------|------------|------------|------------|
E|------------|------------|------------|------------|

G|------------|------------|------------|------------|
D|0-----------|------------|0-----------|------------|
A|------------|------------|------------|------------|
E|------------|------------|------------|------------|

  [Verse]        on  snow   moun         from
G|------------|------------|------------|------------|
D|0-----0-----|0-----0-----|0-----0-----|0-----0-----|
A|----0-----0-|----0-----0-|----0-----0-|----0-----0-|
E|------------|------------|------------|------------|

  down         youth          foun    
G|------------|------------|------------|------------|
D|0-----0-----|0-----0-----|0-----0-----|0-----0-----|
A|----0-----0-|----0-----0-|----0-----0-|----0-----0-|
E|------------|------------|------------|------------|

  High           on         rhy           she
G|------------|------------|------------|------------|
D|0-----0-----|0-----0-----|0-----0-----|0-----0-----|
A|----0-----0-|----0-----0-|----0-----0-|----0-----0-|
E|------------|------------|------------|------------|
 
  guys         eyes         with 
G|------------|------------|------------|------------|
D|0-----0-----|0-----0-----|0-----0-----|0-0-0-0-0-0-|
A|----0-----0-|----0-----0-|----0-----0-|------------|
E|------------|------------|------------|------------|

G|------------|------------|------------|------------|
D|------------|------------|------------|------------|
A|------------|3-----------|------------|3-----------|
E|3-----------|------------|3-----------|------------|

G|------------|------------|------------|------------|
D|------------|------------|------------|------------|
A|------------|3-----------|------------|------------|
E|3-----------|------------|3-----------|------------|

  [Verse]     
G|------------|------------|------------|------------|
D|0-----0-----|0-----0-----|0-----0-----|0-----0-----|
A|----0-----0-|----0-----0-|----0-----0-|----0-----0-|
E|------------|------------|------------|------------|

G|------------|------------|------------|------------|
D|0-----0-----|0-----0-----|0-----0-----|0-----0-----|
A|----0-----0-|----0-----0-|----0-----0-|----0-----0-|
E|------------|------------|------------|------------|

G|------------|------------|------------|------------|
D|0-----0-----|0-----0-----|0-----0-----|0-----0-----|
A|----0-----0-|----0-----0-|----0-----0-|----0-----0-|
E|------------|------------|------------|------------|
 
G|------------|------------|------------|------------|
D|0-----0-----|0-----0-----|0-----0-----|0-0-0-0-0-0-|
A|----0-----0-|----0-----0-|----0-----0-|------------|
E|------------|------------|------------|------------|

G|------------|------------|------------|------------|
D|------------|------------|------------|------------|
A|------------|3-----------|------------|3-----------|
E|3-----------|------------|3-----------|------------|

G|------------|------------|------------|------------|
D|------------|------------|------------|------------|
A|------------|3-----------|------------|------------|
E|3-----------|------------|3-----------|------------|

  [Bridge]
G|------------|------------|0-----0-----|0-----0-----|
D|3-----3-----|3-----3-----|----0-----0-|----0-----0-|
A|----3-----3-|----3-----3-|------------|------------|
E|------------|------------|------------|------------|

  Go    friend must  place  hide               in  the
G|------------|------------|------------|------------|
D|3-----3-----|3-----3-----|------------|------------|
A|----3-----3-|----3-----3-|0-----0-----|0-----0-----|
E|------------|------------|------------|------------|

  [Outro]
G|------------|------------|0-----0-----|0-----0-----|
D|0-----0-----|0-----0-----|----0-----0-|----0-----0-|
A|----0-----0-|----0-----0-|------------|------------|
E|------------|------------|------------|------------|

  Keep repeating the above 4 bars


Добавлено: 20.03.2018
Другие материалы по этой песне:
  • Аккорды и текст

Страница создана 21.02.2012
http://primanota.ru/carole-king/snow-queen-chords.htm
Привет, Гость.
Предлагаем пройти революционный курс по гитаре.
Подарок от PrimaNota.Ru, забирай!