PrimaNota.ru - самый крупный в мире бесплатный архив песенных текстов, аккордов, табулатур и нот


Carole King - Simple Things - текст песни, бас-таба, видео

Регистрация Запомнить меня
Войти через:  Facebook Google Twitter Vk Yandex Mail.ru

Carole King - Simple Things - текст песни, бас-таба, видео

Печатать
Просмотров: 36
Новый альбом группы 'Черный Кузнец' по культовому сериалу 'Сверхъестественное'!
  [Intro]
G|----------------|----------------|----------------|----------------|
D|------0---------|0---------------|------0---------|0---------------|
A|2--4------------|---4--2---------|2--4------------|---4--2--0------|
E|----------------|----------------|----------------|------------2-0-|

  [Verse]
G|----------------|----------------|----------------|----------------|
D|----------------|----------------|----------------|----------------|
A|0-----0-0-----0-|0-----0-0-----0-|0-----0-0-------|----------------|
E|----------------|----------------|----------------|0-----0-0-----0-|

G|----------------|----------------|----------------|----------------|
D|0-----0-0-----0-|----------------|0---0-0---------|----------------|
A|----------------|4-----4-4-----4-|--------4--2--0-|----------------|
E|----------------|----------------|----------------|0-------0-------|

  [Verse]
G|----------------|----------------|----------------|----------------|
D|----------------|----------------|----------------|----------------|
A|0-----0-0-----0-|0-----0-0-----0-|0-----0-0-------|----------------|
E|----------------|----------------|----------------|0-----0-0-----0-|

G|----------------|----------------|----------------|----------------|
D|0-----0-0-----0-|----------------|0---0-0---------|----------------|
A|----------------|4-----4-4-----4-|--------4--2--0-|----------------|
E|----------------|----------------|----------------|0-------0-------|

G|----------------|----------------|----------------|----------------|
D|0-------------0-|----------------|0-------------0-|----------------|
A|----------------|4-------------4-|----------------|4-----------0---|
E|----------------|----------------|----------------|----------------|

                                                fill
G|----------------|----------------|----------------|
D|----------------|----------------|----------------|
A|----------------|4-----4-4-----4-|----------------|
E|4-------------4-|----------------|0-----0-0-------|

  the
G|----------------|----------------|----------------|----------------|
D|------0---------|0---------------|------0---------|0---------------|
A|2--4------------|---4--2---------|2--4------------|---4--2--0------|
E|----------------|----------------|----------------|------------2-0-|

  [Verse]
G|----------------|----------------|----------------|----------------|
D|----------------|----------------|----------------|----------------|
A|0-----0-0-----0-|0-----0-0-----0-|0-----0-0-------|----------------|
E|----------------|----------------|----------------|0-----0-0-----0-|

G|----------------|----------------|----------------|----------------|
D|0-----0-0-----0-|----------------|0-----0-0-----0-|----------------|
A|----------------|4-----4-4-----4-|----------------|4-----4-4-------|
E|----------------|----------------|----------------|----------------|

G|----------------|----------------|----------------|----------------|
D|4--2--0---------|----------------|----------------|------0---------|
A|--------4--2--0-|----------------|----------------|2--4------------|
E|----------------|0---------------|0---------------|----------------|

G|----------------|
D|0---------------|
A|---4--2--0------|
E|------------2-0-|

G|----------------|----------------|----------------|----------------|
D|----------------|----------------|----------------|----------------|
A|0---------------|0-------0---0---|0---------------|0------0---0----|
E|----------------|----------------|----------------|----------------|

G|----------------|----------------|----------------|----------------|
D|----------------|----------------|----------------|----------------|
A|0-----0-0-----0-|0-----0-0---0---|0---------------|0---------------|
E|----------------|----------------|----------------|----------------|

G|----------------|0---------------|----------------|
D|------0---------|---4--2--4--2-0-|----------------|
A|2--4-----4--2-0-|----------------|4--2--0---------|
E|----------------|----------------|----------------|
Добавлено: 20.03.2018
Другие материалы по этой песне:
  • Аккорды и текст

Страница создана 16.03.2012
http://primanota.ru/carole-king/simple-things-chords.htm
Привет, Гость.
Предлагаем пройти революционный курс по гитаре.
Подарок от PrimaNota.Ru, забирай!