PrimaNota.ru - самый крупный в мире бесплатный архив песенных текстов, аккордов, табулатур и нот


Cannibal Corpse - Drowning In Viscera - текст песни, таба, видео

Регистрация Запомнить меня
Войти через:  Facebook Google Twitter Vk Yandex Mail.ru

Cannibal Corpse - Drowning In Viscera - текст песни, таба, видео

Печатать
Просмотров: 172
Авторы музыки: Pat O'Brien
Авторы текста: Paul Mazurkiewicz
Tuning: A# D# G# C# F# A# D#


RIFF 1
(0:00)
Both Chnls
|----------------------------------------------------------------------|
|----------------------------------------------------------------------|
|--------------------------------------------------------------4-------|
|5-4----4--4-----------------------------------------------------5-----|
|5-4-ph-4--4-----4---7-6-5---4---7-6-5---4---7-6-5---4---7-6-5-----4---|
|3-2-3h-2--2---3---4-------3---4-------3---4-------3---4-------------3-|
        .      . . . . . . . . . . . . . . . . . . . . . . . .   . . .

(0:05)
|------------------------------------------------------------------|
|------------------------------------------------------------------|
|------------------6-5---------------------------------------------|
|----------------------4-------------6-5---5-----------------------|
|--4---7-6-5---4-----------5---8-7-6-------------8-7-6---6---8-7-6-|
|3---4-------3---4-------4---4-----------3---3-5-------3---5-------|
 . . . . . . . . .     . . . . . . . . . . . . . . . . . . . . . .



RIFF 1a
(0:10)
Left Chnl
|--------------------------------------------------------------------|
|--------------------------------------------------------------------|
|------------5-----------------------------5-------------------------|
|4---7---------6-------------------------4---3-4-8-7-------3/5-5-5-4-|
|--5---8-7-6-----4-4-4-5---8-7-6---5-2-3-------------7-5-------------|
|------------------------5-------2-----------------------0-1/3-3-3-2-|
 . . . . . .   . . . . . . . . . . . . . .   . . . . . . .



RIFF 1b
(0:10)
Right Chnl
|----------------------------------------------------------------|
|----------------------------------------------------------------|
|--------------4-----------------------4---8---------------------|
|----7-4---------------7-----5-4---------7---7-----6-5-------9-7-|
|4-5-----7-6-5---8-7-8---4-7-------5-3---------0-3-----4---7-----|
|--------------------------------2-----------------------0-------|
 . . . . . . .   . . . . . . . . . . . . . . . . . . . . . . . .
RIFF 2
(0:15)
Both Chnls
|----------------------------------------------------------------------|
|----------------------------------------------------------------------|
|----------------------------------------------------------------------|
|----------------------------------------------------------------------|
|--5-4-3-------8-7-6-------5-4-3---------------------------------------|
|2-------3-6-5-------5-8-2-------1-2-66663333-66553333-665533-22221111-|
 . . . . . . . . . . . . . . . . . .


|------------------------------------------------------------------------|
|------------------------------------------------------------------------|
|------------------------------------------------------------------------|
|------------------------------------------------------------------------|
|--------------------------------------5-4-3-------8-7-6-------5-4-3-----|
|66662222-55332222-66663333-22221111-2-------3-6-5-------5-8-2-------1-2-|
                                     . . . . . . . . . . . . . . . . . .


|-----------------------------------------------------------------------|
|-----------------------------------------------------------------------|
|-----------------------------------------------------------------------|
|-----------------------------------------------------------------------|
|-----------------------------------------------------------------------|
|66663333-66553333-665533-22221111--66662222-55332222-66663333-22221111-|


|----------------------------------------------------------------------|
|----------------------------------------------------------------------|
|----------------------------------------------------------------------|
|----------------------------------------------------------------------|
|--5-4-3-------8-7-6-------5-4-3---------------------------------------|
|2-------3-6-5-------5-8-2-------1-2-66663333-66553333-665533-22221111-|
 . . . . . . . . . . . . . . . . . .


|------------------------------------------------------------------------|
|------------------------------------------------------------------------|
|------------------------------------------------------------------------|
|------------------------------------------------------------------------|
|--------------------------------------5-4-3-------8-7-6-------5-4-3-----|
|66662222-55332222-66663333-22221111-2-------3-6-5-------5-8-2-------1-2-|
                                     . . . . . . . . . . . . . . . . . .


|-----------------------------------------------------------------------|
|-----------------------------------------------------------------------|
|-----------------------------------------------------------------------|
|-----------------------------------------------------------------------|
|-----------------------------------------------------------------------|
|66663333-66553333-665533-22221111--66662222-55332222-66663333-22221111-|
RIFF 3a
(0:35)
Left Chnl.                     4 Times
|---------------------------   -------------------------------------------|
|---------------------------   -----------------------------ph------------|
|---------------------------   -----------------------------2-------------|
|66666666-77777777-44444444-   -------------------------------------------|
|---------------------------   -2222555522-44441111-44441111--6-3-5-3-4-3-|
|---------------------------   -------------------------------4-1-3-1-2-1-|
                                                              . . . . . .


RIFF 3b
Right Chnl.                    4 Times
|---------------------------   -------------------------------------------|
|---------------------------   -----------------------------ph------------|
|---------------------------   -----------------------------2-------------|
|---------77777777----------   -------------------------------------------|
|44444444----------55555555-   -2222555522-44441111-44441111--6-3-5-3-4-3-|
|---------------------------   -------------------------------4-1-3-1-2-1-|
                                                              . . . . . .


RIFF 3c
Right Chnl only Last 2 Times
|-------------------------------------------|
|-----------------------------ph------------|
|-----------------------------2-------------|
|-------------------------------------------|
|-5555888855-77774444-77774444--6-3-5-3-4-3-|
|-------------------------------4-1-3-1-2-1-|
                                . . . . . .



RIFF   2   Again
RIFF   3   Again
RIFF   2   Again
RIFF   3   Again




RIFF 4
(1:23)
Both Chnls
|----------------------------------|
|----------------------------------|
|----------------------------------|
|7--------8--------6---------------|
|5-444444-6-555555-4-666666--------|
|---------------------------555555-|
   ......   ......   ...... ......
RIFF 5
(1:23)
Both Chnls 8 Times
|----------------------|
|----------------------|
|----------------------|
|9\6--10\7--6----------|
|7\4--8-\5--4----------|
|-------------55555555-|
              ........


RIFF 6
(1:34)
Both Chnls 4 Times
|-------------------|
|-------------------|
|-------------------|
|------8-7----------|
|7-4-7-----8-6~-222-|
|---------------000-|
                ...



RIFF 4 Again
RIFF 5 Again
RIFF 6 Again




RIFF 7
(2:09)
Both Chnls
|--------------------------------------------------------------|
|--------------------------------------------------------------|
|-------------------------------------------------2222---------|
|7--------8--------6----------------------44443333----33332222-|
|5-444444-6-555555-4-666666------------------------------------|
|----------------------------666666666666----------------------|
   ......   ......   ...... ............


|----------------------------------------------------------------|
|----------------------------------------------------------------|
|---------------------------------------------------2222---------|
|-------------------------------------------44443333----33332222-|
|-----7------3-----------5-5--8----------------------------------|
|555555-111111-3333-7tr8-3-3--6-666666666666---------------------|
 ..... ..... ....        . .    ............


|-----------------------------------------------------------------|
|-----------------------------------------------------------------|
|----------------------------------------------------2222---------|
|--------------------------------------------44443333----33332222-|
|-----7------3------------5-5-8-----------------------------------|
|555555-111111-3333-7h8p7-3-3-6-666666666666----------------------|
 ..... ..... ....         . .   ............
|----------------------------------------------------------------|
|----------------------------------------------------------------|
|---------------------------------------------------2222---------|
|-------------------------------------------44443333----33332222-|
|-----7------3-----------5-5-8-----------------------------------|
|555555-111111-3333-7tr8-3-3-6-666666666666----------------------|
 ..... ..... ....        . .   ............


|--------------------------------------|
|--------------------------------------|
|--------------------------------------|
|-----------------------------2--------|
|-----7------3------------5-5-2--------|
|555555-111111-3333-7h8p7-3-3-0--------|
 ..... ..... ....         . .

NOTE: Right Channel sustains final chord, Left Channel
sustain chord briefly than plays Fill 1.



Fill 1
(2:33)
Left Chnl.
|-----------------------------------|
|-----------------------------------|
|-----------------------------------|
|--------2222-----------------------|
|55553333----1111-55553333222222222-|
|-----------------------------------|




RIFF 1 Again
RIFF 2 Again




Fill 2a
(3:11)
Left Chnl
|---------------------------|
|---------------------------|
|---------------------------|
|66666666-77777777-44444444-|
|---------------------------|
|---------------------------|



Fill 2b
(3:11)
Right Chnl
|---------------------------|
|---------------------------|
|---------------------------|
|---------77777777----------|
|44444444----------55555555-|
|---------------------------|
RIFF 8
(3:13)
Both Chnls
|----------------------------------|
|----------------------------------|
|---------------------2222---------|
|-------------44443333----33332222-|
|----------------------------------|
|666666666666----------------------|
 ............


|----------------------------------------------------------------|
|----------------------------------------------------------------|
|---------------------------------------------------2222---------|
|-------------------------------------------44443333----33332222-|
|-----7------3-----------5-5--8----------------------------------|
|555555-111111-3333-7tr8-3-3--6-666666666666---------------------|
 ..... ..... ....        . .    ............


|-----------------------------------------------------------------|
|-----------------------------------------------------------------|
|----------------------------------------------------2222---------|
|--------------------------------------------44443333----33332222-|
|-----7------3------------5-5-8-----------------------------------|
|555555-111111-3333-7h8p7-3-3-6-666666666666----------------------|
 ..... ..... ....         . .   ............


|----------------------------------------------------------------|
|----------------------------------------------------------------|
|---------------------------------------------------2222---------|
|-------------------------------------------44443333----33332222-|
|-----7------3-----------5-5-8-----------------------------------|
|555555-111111-3333-7tr8-3-3-6-666666666666----------------------|
 ..... ..... ....        . .   ............


|--------------------------------------|
|--------------------------------------|
|--------------------------------------|
|-----------------------------2--------|
|-----7------3------------5-5-2--------|
|555555-111111-3333-7h8p7-3-3-0--------|
 ..... ..... ....         . .


END.
Tab Legend
. - palm mute
\ - slide down to
/ - slide up to
h - hammer on
t - tap
ph - pinched harmonic
^ - Hold bend
r release bend
~ - vibrato bend
() - ghost note, sustained note
" - tremolo note
b - Bend
f - full bend
h - half bend
q - quarter bend
^ - Hold bend
r - release bend
Добавлено: 08.06.2013
Другие материалы по этой песне:
  • Аккорды и текст

Страница создана 10.07.2012
http://primanota.ru/cannibal-corpse/drowning-in-viscera-chords.htm
Привет, Гость.
Предлагаем пройти революционный курс по гитаре.
Подарок от PrimaNota.Ru, забирай!