PrimaNota.ru - самый крупный в мире бесплатный архив песенных текстов, аккордов, табулатур и нот


Cannibal Corpse - Meat Hook Sodomy - текст песни, таба, видео

Регистрация Запомнить меня
Войти через:  Facebook Google Twitter Vk Yandex Mail.ru

Cannibal Corpse - Meat Hook Sodomy - текст песни, таба, видео

Печатать
Просмотров: 334
   Cannibal Corpse "Meathook Sodomy"

   Tabbed by Chris Poppert   
   Corrected by death8699@prodigy.net

   Tune to E flat
                                                           song order
   |--------------------------------|                   
   |--------------------------------|                      riff A x 8
   |--------------------------------|                      riff B x 8
   |--------------------------------|  riff A              riff A x 4
   |6h7----10p9----8h9------10h1112-|                      riff C x 4
   |----00------00------00----------|                      riff D x 4
                                                           riff C x 4
                                                           riff D x 4
   |----------------------------|                          riff A x 8
   |----------------------------|                          riff E x 5
   |----------------------------|                          riff F x 8
   |----------------------------|   riff B                 riff G x 4
   |3------5------4-------------|                          riff G+H x 4
   |1-0000-3-0000-2-0000-343-45-|                          riff G+I x 2
                          hp  h                            riff H+I x 1
                                                           riff H x 1
                                                           riff G x 4
                                                           riff J x 1
   |--------------------------------|                      riff JJ x 6
   |--------------------------------|                      riff E x 4
   |--------------------------------|                      riff K x 4
   |2-------5-------3---------------|  riff C              riff B x 2
   |2-------5-------3-------4\5-3\4-|                      riff A x 2
   |0-0-0-0-3-0-0-0-1-0-0-0-2\3-1\2-|                      riff B,A,B,A,B,BB,B,BB
                                                           

   |--------------------------------|
   |--------------------------------|
   |--------------------------------|
   |--------------------------------|  riff D
   |--9-6-----8-5-----7-4-----6-3---|
   |0-7-4-0-0-6-3-0-0-5-2-0-0-4-1-0-|
    

   |--------------------------------|---------------------------------|
   |--------------------------------|---------------------------------|
   |--------------------------------|---------------------------------|
   |--------------------------------|---------------------------------|  riff e
   |--------------------------------|---------------------------------|
   |33336666000033332222555511114444|33336666000033331111444422225555-|

    riff E is played 3 different ways, varying the length of each note


    
   |--------------------|
   |--------------------|
   |--------------------|
   |--------------------|  riff F
   |--------------------|
   |0000---6-5-3-232323-|
                  h h h



   |---------------------------|              
   |---------------------------|
   |---------------------------|
   |---------------------------|  riff G(triplet feel)
   |543543---432432---321321-3-|
   |------543------432-------1-|
    {3}{3}ect..


   |--------------|--------------|---------|
   |--------------|--------------|---------|
   |--------------|--------------|---------|
   |-7------------|-6------------|---------|  riff H
   |-5------------|-4------------|321321-3-|
   |-5------------|-4------------|-------1-|
 
   
   |----------------------------------|
   |----------------------------------|
   |----------------------------------|  
   |----------------------------------|   riff I(guitar 2)
   |--------------------------------3-|
   |000-000-000-000-000-000-000-000-1-|
     

  
   |-------------------------------|
   |-------------------------------|
   |-------------------------------|  
   |-------------------------------|   riff J
   |------------------4----------4-|
   |5555564444453333342------4-5---|
   



   |--------------------------|
   |--------------------------|
   |--------------------------| 
   |------------------------4-|  riff JJ
   |--------------------4-5---|
   |5555564444453333342-------|


   |-----------------------|
   |-----------------------|
   |-----------------------|
   |-----------------------|  riff K
   |-----------------------|
   |000000----8-7-5-454545-|
    (snare)         h h h


   |-------------------------------------| 
   |-------------------------------------|
   |-------------------------------------| 
   |-------------------------------------|  riff BB
   |3------5------4------8h9----10h1112--|
   |1-0000-3-0000-2-0000-----00----------|
Добавлено: 04.05.2012
Другие материалы по этой песне:

Страница создана 23.02.2012
http://primanota.ru/cannibal-corpse/meat-hook-sodomy-chords.htm
Привет, Гость.
Предлагаем пройти революционный курс по гитаре.
Подарок от PrimaNota.Ru, забирай!