PrimaNota.ru - самый крупный в мире бесплатный архив песенных текстов, аккордов, табулатур и нот


Cannibal Corpse - Mutation Of The Cadaver - текст песни, таба, видео

Регистрация Запомнить меня
Войти через:  Facebook Google Twitter Vk Yandex Mail.ru

Cannibal Corpse - Mutation Of The Cadaver - текст песни, таба, видео

Печатать
Просмотров: 200
Авторы музыки: Alex Webster
Авторы текста: Alex Webster
Band:  Cannibal Corpse
Album: Gore Obsessed
Song:  Mutation Of The Cadaver


-  - palm mute           /  - slide up to
\  - slide down to       ~  - vibrato
h  - hammer on           b  - Bend
p  - pull off            Suffixes for bend
t  - tap                 f  - full bend    h - half bend
ph - pinched harmonic    q  - quarter bend t - tap bend
*  - see comment         ^  - Hold bend    r release bend
x  - Stuccatto           ~  - vibrato bend
,  - slight palm mute    () - ghost note, sustained note
"  - tremolo note        <> - Trill

Tuning 6 half steps down: Bb-Eb-Ab-Db-F-Bb


Guitar one = left  channel
Guitar two = right channel


guitar one     4 times
|-RIFF-A1-------------------------------|
|---------------------------------------|
|---------------------------------------|
|-----10-----12---13---13---12---11---9-|
|-0-9----0-9----9----9----9----8----8---|
|---------------------------------------|
  . .    . .    .    .    .    .    .
guitar two third & fourth time
|-RIFF-A2---------------------------------------|
|-----------------------------------------------|
|-----------------------------------------------|
|------13------15----16----16----15----14----12-|
|-0-12----0-12----12----12----12----11----11----|
|-----------------------------------------------|
  . .     . .     .     .     .     .     .
both guitars 1 time
|-RIFF-A3-------------------------------|
|---------------------------------------|
|---------------------------------------|
|---------------------------------------|
|-----10-----12---13---13---12---11---9-|
|-0-9----0-9----9----9----9----8----8---|
  . .    . .    .    .    .    .    .
both guitars 1 time
|-RIFF-B1-----------------------------------------------------|
|-------------------------------------------------------------|
|-------------------------------------------------------------|
|-------------------------------------------------------------|
|-----------------4-4-6-6---------------------4-4-6-6---------|
|-7-7-7-5-5-5-3-3---------5-5-7-7-7-5-5-5-3-3---------5-5-3-3-|
  . . . . . . . . . . . . . . . . . . . . . . . . . . . . . .



both guitars 1 time
|-RIFF-C1------------------------|
|--------------------------------|
|--------------------------------|
|-4------------------------------|
|-----3--3/5~--------------------|
|-2-------------8—-5h8p5h8p5h8p5-|

guitar one 1 time
|-RIFF-A3-------------------------------|
|---------------------------------------|
|---------------------------------------|
|---------------------------------------|
|-----10-----12---13---13---12---11---9-|
|-0-9----0-9----9----9----9----8----8---|
  . .    . .    .    .    .    .    .
guitar two 1 time
|-RIFF-A4---------------------------------------|
|-----------------------------------------------|
|-----------------------------------------------|
|-----------------------------------------------|
|------13------15----16----16----15----14----12-|
|-0-12----0-12----12----12----12----11----11----|
  . .     . .     .     .     .     .     .
again RIFF B1 = 1 time

both guitars 1 time
|-RIFF-C2-----------------------------------------------------------|
|-------------------------------------------------------------------|
|-------------------------------------------------------------------|
|-4-------------------------------4---------3h4p3h4p3h4p3-----------|
|-----3--3/5~-------------------------3--5----------------5h8p5h8p5-|
|-2-------------8—-5h8p5h8p5h8p5--2---------------------------------|

guitar one 2 times / guitar two 1 time
|-RIFF-D---------------------------------------------------------|
|----------------------------------------------------------------|
|----------------------------------------------------------------|
|-4p000000000000033334444777766664p000003p000004p000003p000004p0-
|----------------------------------------------------------------|
|----------------------------------------------------------------|

 ------------------------------------------------------------------|
 ------------------------------------------------------------------|
 ------------------------------------------------------------------|
 -------------------------------------------------3333333333333333-|
 -3333333333333333--------77776666---------------------------------|
 -----------------55555555--------2222222222222222-----------------|

guitar two second time
|-RIFF-D2--------------------------------------------------------|
|----------------------------------------------------------------|
|----------------------------------------------------------------|
|-4p000000000000033334444777766664p000003p000004p000003p000004p0-
|----------------------------------------------------------------|
|----------------------------------------------------------------|

 ------------------------------------------------------------------|
 ------------------------------------------------------------------|
 ------------------------------------------------------------------|
 -------------------------55554444----------------6666666666666666-|
 -3333333333333333-------------------------------------------------|
 -----------------55555555--------2222222222222222-----------------|
guitars one 1 time
|-RIFF-E1----------------------------------------------------------|
|------------------------------------------------------------------|
|------------------------------------------------------------------|
|-------------------------------------33334444----3333444477777777-|
|-3-------6-------6-------10------5555--------3333-----------------|
|-1-33333-4-33333-4-77777-8-55555----------------------------------|
    .....   .....   .....   .....
 -------------------------------------------------------|
 -------------------------------------------------------|
 -------------------------------------------------------|
 -------------------------------------------------------|
 -66666666-3-------6-------6-------10------555588889999-|
 ----------1-33333-4-33333-4-77777-8-55555--------------|
             .....   .....   .....   .....
guitar two 1 time
|-RIFF-E2----------------------------------------------------------|
|------------------------------------------------------------------|
|---------------------------------------------------------55555555-|
|-------------------------------------33334444----33334444---------|
|-3-------6-------6-------10------5555--------3333-----------------|
|-1-33333-4-33333-4-77777-8-55555----------------------------------|
    .....   .....   .....   .....
 -------------------------------------------------------|
 -------------------------------------------------------|
 -------------------------------------------------------|
 -44444444----------------------------------------------|
 ----------3-------6-------6-------10------555588889999-|
 ----------1-33333-4-33333-4-77777-8-55555--------------|
             .....   .....   .....   .....

both guitars 2 times
|-RIFF-F----------------------------|
|-----------------------------------|
|-----------------------------------|
|-----------------------------------|
|--------6--------------6-----------|
|-8--886---5-5-5-8--886----331--3-2-|
  .  ...   . . . .  ...    ...  . .

again RIFF D = 2 times
again RIFF E = 1 time
again RIFF F = 1 time
again RIFF E = 1 time
again RIFF F = 4 time

guitar one 2 time
|-RIFF-C1------------------------|
|--------------------------------|
|--------------------------------|
|-4------------------------------|
|-----3--3/5~--------------------|
|-2-------------8—-5h8p5h8p5h8p5-|

guitar two chord 2 times
|-------------------------------|
|-------------------------------|
|-------------------------------|
|-4-----------------------------|
|-------------------------------|
|-2-----------------------------|


guitar one 3 times
|-RIFF-G--------------------------------------------------------|
|---------------------------------------------------------------|
|---------------------------------------------------------------|
|-------5---8---10\8-8—-10\8-8--------8/10-10-------------------|
|-7-----------------------------7------------------7-----9---10-|
|-0-----3---6---8-\6-6--8-\6-6--0-----6/-8--8--0-6---0-6---6----|
                                               . .   . .   .
guitar two 3 times
|-RIFF-G--------------------------------------------------------|
|---------------------------------------------------------------|
|-------------------------------9-------------------------------|
|-------5---8---10\8-8—-10\8-8----------------------------------|
|-7-----------------------------7------------------7-----9---10-|
|-0-----3---6---8-\6-6--8-\6-6-----------------0-6---0-6---6----|
                                               . .   . .   .
guitar one fourth time
|-RIFF-G---------------------------------------|
|----------------------------------------------|
|----------------------------------------------|
|-------5---8---10\8-8—-10\8-8--------8/10-10--|
|-7-----------------------------7--------------|
|-0-----3---6---8-\6-6--8-\6-6--0-----6/-8--8--|

guitar two fourth time
|-RIFF-G---------------------------------------|
|----------------------------------------------|
|-------------------------------9--------------|
|-------5---8---10\8-8—-10\8-8-----------------|
|-7-----------------------------7--------------|
|-0-----3---6---8-\6-6--8-\6-6-----------------|

guitar one 1 time
|-RIFF-H---------------------------------------------|
|----------------------------------------------------|
|----------------------------------------------------|
|----------------------------------------------------|
|-----7-----9---10-----7-----9---10---10---9---8---6-|
|-0-6---0-6---6----0-6---0-6---6----6----6---5---5---|
  . .   . .   .    . .   . .   .    .    .   .   .
 ---------------------------------|
 ---------------------------------|
 ---------------------------------|
 ---------------------------------|
 -----4-----6---7---7---6---5---3-|
 -0-3---0-3---3---3---3---2---2---|
  . .   . .   .   .   .   .   .

guitar two 1 time
|-RIFF-H---------------------------------------------------|
|----------------------------------------------------------|
|----------------------------------------------------------|
|----------------------------------------------------------|
|-----10-----12---13-----10-----12---13---13---12---11---9-|
|-0-9----0-9----9----0-9----0-9----9----9----9----8----8---|
  . .    . .    .    . .    . .    .    .    .    .    .
 -----------------------------------|
 -----------------------------------|
 -----------------------------------|
 -----------------------------------|
 -----7-----9---10---10---9---8---6-|
 -0-6---0-6---6----6----6---5---5---|
  . .   . .   .    .    .   .   .
both guitars 1 time
 -RIFF-I------------------------------------------------------------|
 -------------------------------------------------------------------|
 -------------------------------------------------------------------|
 -------------------------------------------------------------------|
 -----2-----4-----2-----4-----2-----4-----2-----4-----2-----4-----2-|
 -0-1---0-2---0-1---0-2---0-1---0-2---0-1---0-2---0-1---0-2---0-1---|
  . .   . .   . .   . .   . .   . .   . .   . .   . .   . .   . .
 -------------------------------------------------------------------------|
 -------------------------------------------------------------------------|
 -------------------------------------------------------------------------|
 -------------------------------------------------------------------------|
 -----4-2-----4-2-----4-2-----4-----4-----6---7---7-----7-----9---10---10-|
 -0-2-----1-0-----1-0-----1-0---5-3---5-3---3---3---0-6---6-7---7----7----|
  . .     . .     . .     . .   . .   . .   .   .   . .   . .   .    .
guitar one 1 time
 -RIFF-J--------------------------------|
 ---------------------------------------|
 ---------------------------------------|
 ---------------------------------------|
 -----10-----12---13---13---12---11---9-|
 -0-9----0-9----9----9----9----8----8---|
  . .    . .    .    .    .    .    .

guitar two 1 time
 -RIFF-J----------------------------------------|
 -----------------------------------------------|
 -----------------------------------------------|
 -----------------------------------------------|
 ------13------15----16----16----15----14----12-|
 -0-12----0-12----12----12----12----11----11----|
  . .     . .     .     .     .     .     .

guitar one under solo I again RIFF B = 4 times
guitar two under solo I again RIFF B = 2 times

guitar two under solo  third & fourth  time
|-RIFF-B2-----------------------------------------------------------|
|-------------------------------------------------------------------|
|-------------------------------------------------------------------|
|-------------------------------------------------------------------|
|--------------------7-7-9-9------------------------7-7-9-9---------|
|-10-10-10-8-8-8-6-6---------8-8-10-10-10-8-8-8-6-6---------8-8-6-6-|
  .  .  .  . . . . . . . . . . . .  .  .  . . . . . . . . . . . . .

break before going into solo II
|---------------------|
|---------------------|
|---------------------|
|-4----4----4----4----|
|-4----4----4----4----|
|-2----2----2----2----|

both guitars under solo again RIFF D = 2 times

both guitars 4 times
|-RIFF-K------------------------------------------------------|
|-------------------------------------------------------------|
|-------------------------------------------------------------|
|-------------------------------------------------------------|
|-3-------6-------6-------10-------6--------------6-----------|
|-1-33333-4-33333-4-77777-8--55555---5-5-5-8--886----331--3-2-|
    .....   .....   .....    .....   . . . .  ...    ...  . .

both guitars 1 time (ending)
|-----------------------------------|
|-----------------------------------|
|-----------------------------------|
|-----------------------------------|
|--------6--------------6-------5-3-|
|-8--886---5-5-5-8--886----331--3-1-|
  .  ...   . . . .  ...    ...  .
Добавлено: 02.10.2013
Другие материалы по этой песне:
  • Аккорды и текст

Страница создана 15.05.2012
http://primanota.ru/cannibal-corpse/mutation-of-the-cadaver-chords.htm
Привет, Гость.
Предлагаем пройти революционный курс по гитаре.
Подарок от PrimaNota.Ru, забирай!