PrimaNota.ru - самый крупный в мире бесплатный архив песенных текстов, аккордов, табулатур и нот


Cannibal Corpse - Demented Aggression - таба, видео

Регистрация Запомнить меня
Войти через:  Facebook Google Twitter Vk Yandex Mail.ru

Cannibal Corpse - Demented Aggression - таба, видео

Печатать
Просмотров: 240
Уроки эстрадного вокала в Санкт-Петербурге
Авторы музыки: Pat O'Brien
Авторы текста: Paul Mazurkiewicz
-------------------------------------------------------------------------------
                             Demented Aggression - Cannibal Corpse
-------------------------------------------------------------------------------

Tunings: 
Guitars: Drop B:        B - F# - b - E - G# - C#
First, make sure Guitar strings are AT LEAST a gauge 11.

Bass:    Drop B/w A:    B - F# - b - E - A

************************************

Not 100%, especially Riff E, in that fricken break down.
just couldn't seem to get away from having to use the first fret,
instead of using the open top string, as it appears in live videos

************************************


RIFF A:
C# |--------------------------------|-------------------------------|
G# |--------------------------------|-------------------------------|
E  |--------------------------------|-------------------------------|
b  |--------------------------------|-------------------------------|
F# |--12-0-0-12-0-0-12-0-0-12-15-13-|-12-0-0-12-0-0-12-0-0-12-16-13-|
B  |--------------------------------|-------------------------------|
   
C# |--------------------------------|-------------------------------|
G# |--------------------------------|-------------------------------|
E  |--------------------------------|-------------------------------|
b  |--------------------------------|--------7-----/8---------------|
F# |--12-0-0-12-0-0-12-0-0-12-15-13-|-12-0-0-5-0-0-/6----7--6--5----|
B  |--------------------------------|--------------------7--6--5----| 

RIFF A: 3 more times.



RIFF B:
C# |------------------|-----------------|-----------------|-----------------|------------------|
G# |------------------|-----------------|-----------------|-----------------|------------------|
E  |------------------|-----------------|-----------------|-----------------|------------------|
b  |------------------|-----------------|-----------------|-----------------|------------------|
F# |------------------|-8-8-8-8-8-8-8-8-|-8-8-8-8-8-8-8-8-|-8-8-8-8-9-9-7-7-|-8-8-7-7-9-9-8-8--|
B  |--7-7-7-7-7-7-7-7-|-----------------|-----------------|-----------------|------------------|
   |                                                                                           |
C# |------------------|-----------------|-----------------|-----------------|------------------|
G# |------------------|-----------------|-----------------|-----------------|------------------|
E  |------------------|-----------------|-----------------|-----------------|------------------|
b  |------------------|-----------------|-----------------|-----------------|------------------|
F# |------------------|-8-8-8-8-8-8-8-8-|-8-8-8-8-8-8-8-8-|-8-8-8-8-7-7-9-9-|-7-7-8-8-7-7-9-9--|
B  |--7-7-7-7-7-7-7-7-|-----------------|-----------------|-----------------|------------------|

Bass: During the B Riffs: (also: notice G# string, tuned up a ½ step to A)
(A)|-----11----------|-----11----------|-------------15--|-------------15--|
 E |-------------16--|-------------16--|-----10----------|-----10----------|
 b |--9--------------|--9--------------|---------13------|---------13------|
 F#|---------14------|---------14------|--8--------------|--8--------------|
 B |-----------------|-----------------|-----------------|-----------------|

(A)|-------------15--|-------------15--|-------------15--|-------------15--|
 E |-----10----------|-----10----------|-----10----------|-----10----------|
 b |---------13------|---------13------|---------13------|---------13------|
 F#|--8--------------|--8--------------|--8--------------|--8--------------|
 B |-----------------|-----------------|-----------------|-----------------|

RIFF B: 1 more time.


RIFF A: Twice.


RIFF (B1): 
C# |------------------|-----------------|-----------------|-----------------|------------------|
G# |------------------|-----------------|-----------------|-----------------|------------------|
E  |------------------|-----------------|-----------------|-----------------|------------------|
b  |------------------|-----------------|-----------------|-----------------|------------------|
F# |------------------|-8-8-8-8-8-8-8-8-|-8-8-8-8-8-8-8-8-|-8-8-8-8-9-9-7-7-|-8-8-7-7-9-9-8-8--|
B  |--9-9-9-9-9-9-9-9-|-----------------|-----------------|-----------------|------------------|
   |                                                                                           |
C# |------------------------------|-------------------------------------------|
G# |------------------------------|-------------------------------------------|
E  |------------------------------|-T-P-H--T-P-H--T-P-H--T-P-H--T-P-H--T-P-H--|
b  |--T-P-H--T-P-H--T-P-H--T-P-H--|-18-3-6-15-3-6-18-3-6-15-3-6-18-3-6-15-3-6-|
F# |--17-2-5-14-2-5-17-2-5-14-2-5-|-------------------------------------------|
B  |------------------------------|-------------------------------------------|

|----------------------|
|----------------------|
|----------------------|
|-7---6---4---5---4---3|
|-7---6---4---5---4---3|
|-5---4---2---3---2---1|




RIFF C:
C# |-------------|-------------|-------------|-------------|
G# |-------------|-------------|-------------|-------------|
E  |-------------|-------------|-------------|-------------|
b  |-------------|-------------|-------------|-------------|
F# |-------3-----|-------4-----|-------3-----|-------5-----|
B  |-3-2-1---2-1-|-3-2-1---2-1-|-3-2-1---2-1-|-3-2-1---2-1-|

C# |-------------|-------------|-------------|-------------|
G# |-------------|-------------|-------------|-------------|
E  |-------------|-------------|-------------|-------------|
b  |-------------|-------------|-------------|---2-1-------|
F# |-------3-----|-------4-----|-------3-----|-3-----3-2---|
B  |-3-2-1---2-1-|-3-2-1---2-1-|-3-2-1---2-1-|-----------4-|

Repeat Riff C:


RIFF D:
C# |-------------|-------------|-------------|-------------|
G# |-------------|-------------|-------------|-------------|
E  |-------------|-------------|-------------|-------------|
b  |-------5-----|-------6-----|-------5-----|-------7-----|
F# |-5-4-3-3-4-3-|-5-4-3-4-4-3-|-5-4-3-3-4-3-|-5-4-3-5-4-3-|
B  |-3-2-1---2-1-|-3-2-1---2-1-|-3-2-1---2-1-|-3-2-1---2-1-|

C# |-------------|-------------|-------------|-------------|
G# |-------------|-------------|-------------|-------------|
E  |-------------|-------------|-------------|-------------|
b  |-------5-----|-------6-----|-------5-----|---2-1-------|
F# |-5-4-3-3-4-3-|-5-4-3-4-4-3-|-5-4-3-3-4-3-|-3-----3-2---|
B  |-3-2-1---2-1-|-3-2-1---2-1-|-3-2-1---2-1-|-----------4-|

Repeat Riff D:


RIFF A: Twice.


RIFF (B2):
C# |------------------|-----------------|-----------------|-----------------|------------------|
G# |------------------|-----------------|-----------------|-----------------|------------------|
E  |------------------|-----------------|-----------------|-----------------|------------------|
b  |------------------|-----------------|-----------------|-----------------|------------------|
F# |------------------|-8-8-8-8-8-8-8-8-|-8-8-8-8-8-8-8-8-|-8-8-8-8-9-9-7-7-|-8-8-7-7-9-9-8-8--|
B  |--9-9-9-9-9-9-9-9-|-----------------|-----------------|-----------------|------------------|
                                                                                            
C# |------------------------------|-------------------------------------------|
G# |--T-P-H--T-P-H--T-P-H--T-P-H--|-------------------------------------------|
E  |--16-4-7-19-4-7-16-4-7-19-4-7-|-T-P-H--T-P-H--T-P-H--T-P-H--T-P-H--T-P-H--|
b  |------------------------------|-15-3-6-18-3-6-15-3-6-18-3-6-15-3-6-18-3-6-|
F# |------------------------------|-------------------------------------------|
B  |------------------------------|-------------------------------------------|

----------------------|
----------------------|
----------------------|
-7---6---4---5---4---3|
-7---6---4---5---4---3|
-5---4---2---3---2---1|



RIFF C: Twice.

RIFF D: Twice.


INTERLUDE: (Breakdown)
RIFF E1:
     GtI.                                                     Rake
C# |------------------------------------|-----------------------------|
G# |------------------------------------|--------------------3--------|
E  |------------------------------------|---------------------3-------|
b  |---------------------------------4\-|----------------------4------|
F# |-------------------------Trill---3\-|-----------------------5-----|
B  |-1---1---1---1---1---1-2H4P2H4P2----|-1---1---1---1---1------6----|
   |                                    |                     Rake     
   | GtII.                              |                   Harmonics |
C# |------------------------------------|--------------------2.2------|
G# |------------------------------------|---------------------2.2-----|
E  |------------------------------------|----------------------3.3----|
b  |---------------------------------4\-|-----------------------4.2---|
F# |-------------------------Trill---3\-|------------------------5.2--|
B  |-1---1---1---1---1---1-2H4P2H4P2----|-1---1---1---1---1-------6.2-|

Repeat Riff E1: 3 more times


RIFF E2:
C# |---------------------------------| continue
G# |---------------------------------| with next
E  |---------------------------------| line below
b  |---------------------------------| to finish
F# |-------------------------Trill---| off this
B  |-1---1---1---1---1---1-2H4P2H4P2-| section.

    "Rot.................ting     de.........cay       un........der       the..."
C# |---------|---------|---------|---------|---------|---------|---------|---------|
G# |---------|---------|---------|---------|---------|---------|---------|---------|
E  |---------|---------|---------|---------|---------|---------|---------|---------|
b  |-4-------|(4)------|---------|---------|---------|-7-------|-5-------|-4-------|
F# |-3-------|(3)------|---------|-5-5-5-5-|-5-5-5-5-|-6-------|-4-------|-3-------|
B  |---------|---------|-4-------|---------|---------|-5-------|---------|---------|

Repaet E1 and E2 Sections


LEAD BREAK Rhythm:
RIFF F: Play twice
C# |-------------------------|-------------------------|----------------------|---------|
G# |-------------------------|-------------------------|----------------------|---------|
E  |-------------------------|-------------------------|----------------------|---------|
b  |-------------------------|-------------------------|----------------------|---------|
F# |-6-6-3-3-5-5-2-2-6-6-3-3-|-8-8-0-0-8-8-0-0-8-8-0-0-|-12-0-0-12-0-0-12-0-0-|-0-15-13-|
B  |-------------------------|-------------------------|----------------------|---------|

C# |-------------------------|-------------------------|----------------------|-------------------|
G# |-------------------------|-------------------------|----------------------|-------------------|
E  |-------------------------|-------------------------|----------------------|-------------------|
b  |-------------------------|-------------------------|----------------------|-------------------|
F# |-6-6-3-3-5-5-2-2-6-6-3-3-|-8-8-0-0-8-8-0-0-8-8-0-0-|-12-0-0-12-0-0-12-0-0-|-5--3--4--3--6--4--|
B  |-------------------------|-------------------------|----------------------|-3--1--2--1--4--2--|


ENDING:
RIFF C2:
C# |-------------|-------------|-------------|-------------|
G# |-------------|-------------|-------------|-------------|
E  |-------------|-------------|-------------|-------------|
b  |-------------|-------------|-------------|-------------|
F# |-------3-----|-------4-----|-------3-----|-------5-----|
B  |-3-2-1---2-1-|-3-2-1---2-1-|-3-2-1---2-1-|-3-2-1---2-1-|

C# |-------------|-------------|-------------|----------------|
G# |-------------|-------------|-------------|----------------|
E  |-------------|-------------|-------------|----9-8---------|
b  |-------------|-------------|-------------|-10-----10-9----|
F# |-------3-----|-------4-----|-------3-----|-------------11-|
B  |-3-2-1---2-1-|-3-2-1---2-1-|-3-2-1---2-1-|----------------|


RIFF C3:
C# |---------------|---------------|---------------|---------------|
G# |---------------|---------------|---------------|---------------|
E  |---------------|---------------|---------------|---------------|
b  |--------10-----|--------11-----|--------10-----|--------12-----|
F# |-10-9-8----9-8-|-10-9-8----9-8-|-10-9-8----9-8-|-10-9-8----9-8-|
B  |---------------|---------------|---------------|---------------|

C# |---------------|---------------|---------------|-------------|
G# |---------------|---------------|---------------|-------------|
E  |---------------|---------------|---------------|-------------|
b  |--------10-----|--------11-----|--------10-----|---2-1-------|
F# |-10-9-8----9-8-|-10-9-8----9-8-|-10-9-8----9-8-|-3-----3-2---|
B  |---------------|---------------|---------------|-----------4-|

C# |-------------|-------------|-------------|-------------|----||
G# |-------------|-------------|-------------|-------------|----||
E  |-------------|-------------|-------------|-------------|----|| THE
b  |-------5-----|-------6-----|-------5-----|---2-1-------|-8\-|| 
F# |-5-4-3-3-4-3-|-5-4-3-4-4-3-|-5-4-3-3-4-3-|-3-----3-2---|-7\-|| END
B  |-3-2-1---2-1-|-3-2-1---2-1-|-3-2-1---2-1-|-----------4-|-6\-||
Добавлено: 13.10.2013
Другие материалы по этой песне:

Страница создана 23.07.2013
http://primanota.ru/cannibal-corpse/demented-aggression-chords.htm
Привет, Гость.
Предлагаем пройти революционный курс по гитаре.
Подарок от PrimaNota.Ru, забирай!