PrimaNota.ru - самый крупный в мире бесплатный архив песенных текстов, аккордов, табулатур и нот


Camel - Song Within A Song - текст песни, таба, видео

Регистрация Запомнить меня
Войти через:  Facebook Google Twitter Vk Yandex Mail.ru

Camel - Song Within A Song - текст песни, таба, видео

Печатать
Просмотров: 192
Уроки эстрадного вокала в Санкт-Петербурге
Авторы: Andrew Latimer, Peter Bardens

As recorded by Camel in "Moonmadness" 1976
Transcribed by Paulo E. Tuasca

Comments to Paulo E. Tuasca 
This may sound a little odd coming from a guitar player, but I've tabbed
most of the base keyboards, all the keyboards solos, and the two flute solos,
but can't figure out what Latimer is arpeggiating throughout this song!
Anyway, it's a beautiful piece and it's worth playing this arranged
stuff on guitar. Timing is as accurate as I can, and very subtle changes
happen here and there. Listen to the record and don't forget to have fun!

e||-----------------------------------------|
B||-----------------------------------------|
G|5--------------------------------------6--|
D|4-----------------------------------9-----|
A||-Keyboards-------------------------------|
E||-----------------------------------------|
e||-----------------------------------|
B||-------------7---5-----------------|
G|4o7---------------------------------|
D|4o----------------------------------|
A||-Keyboards-------------------------|
E||-----------------------------------|
e||---------------------10--9---------------|
B||-5---------------8-----------------------|
G|5----6--------7-----------------------6--o|
D|4-------7-9-------------------------9----o|
A||-Keyboards-------------------------------|
E||-----------------------------------------|
e||-9---10--12--9---10----------------|-14--12--15--14--14-----------------|
B||-----------------------------------|------------------------------------|
G|4-----------------------------------|------------------------------------|
D|4-----------------------------------|------------------------------------|
A||-Keyboards-------------------------|-Keyboards--------------------------|
E||-----------------------------------|------------------------------------|
e||-----------------|
B||-7---5---8---7---|
G|2-----------------|
D|2-----------------|
A||-Keyboards-------|
E||-----------------|
e||-----------------|-----------------|-----------------|------------------|
B||-7---------------|-----------------|-7---------------|-----7-10--8-7----|
G|4o----------------|-7--------------o|-----------------|-9-------------9--|
D|4o----------------|----------------o|-----------------|------------------|
A||-Keyboards-------|-Keyboards-------|-Flute-----------|-Flute------------|
E||-----------------|-----------------|-----------------|------------------|
e||-----------------|---------------10|-12--1414----17--|-1514-------------|
B||-7---------------|-----7-10--8-12--|-----------------|-----15-----------|
G|4-----------------|-9---------------|o----------------|-----------------o|
D|4-----------------|-----------------|o----------------|-----------------o|
A||-Flute-----------|-Flute-----------|-Flute-----------|-Flute------------|
E||-----------------|-----------------|-----------------|------------------|
e||-----------------|-----------------|-----------------|------------------|
B||-17------15--14--|-12---10-8-7-5-7-|-8-------7-------|------------------|
G|4-----------------|-----------------|o----------------|-9-------7--------|
D|4-----------------|-----------------|o----------------|------------------|
A||-Flute-----------|-----------------|------Keyboards with Vocals---------|
E||-----------------|-----------------|-----------------|------------------|
e||-----------------|-----------------|-----------------|------------------|
B||-----------------|-12--------------|-7---------------|------------------|
G|4-6-------4-------|----------------o|o----------------|-7---------------o|
D|4-----------------|----------------o|o----------------|-----------------o|
A||------Keyboards with Vocals--------|-Keyboards-------|-Keyboards--------|
E||-----------------|-----------------|-----------------|------------------|
e||-----------------|-----------------|-----------------|------------------|
B||-14---15-14------|-----------------|-14---15-14------|-12--15-15--------|
G|4-------------14--|-11--------------|-------------14--|------------------|
D|4-----------------|----12-12--------|-----------------|------------------|
A||-Flute-----------|-Flute-----------|-Flute-----------|-Flute------------|
E||-----------------|-----------------|-----------------|------------------|
e||-21----------17--17--14--14--12----|-12------14--17--14-----------------|
B||--------------------------------15-|------------------------------------|
G|4-----------------------------------|------------------------------------|
D|4-----------------------------------|------------------------------------|
A||-Flute----------(tab expanded)-----|-Flute-----------(tab expanded)-----|
E||-----------------------------------|------------------------------------|
p p
e||-17-----14-15-17-12-14-15-17-------|-15-14---15-14----------------------|
B||-----------------------------------|-----------------15-----------------|
G|4-----------------------------------|------------------------------------|
D|4-----------------------------------|------------------------------------|
A||-Flute----------(tab expanded)-----|-Flute-----------(tab expanded)-----|
E||-----------------------------------|------------------------------------|
e||-12---14-12------|-----------------|-----------------|------------------|
B||------------15-14|-12--------------|-8-------7-------|------------------|
G|4-----------------|-----------------|o----------------|-9-------7--------|
D|4-----------------|-----------------|o----------------|------------------|
A||-Flute-----------|-Flute-----------|------Keyboards with Vocals---------|
E||-----------------|-----------------|-----------------|------------------|
e||-----------------|-----------------|
B||-----------------|-12--------------|
G|4-6-------4-------|----------------o|
D|4-----------------|----------------o|
A||------Keyboards with Vocals--------|
E||-----------------|-----------------|
e||-----------------------------------|-----------------------------|
B||---------------------p-------------|---------------------p-------|
G|4------h-p----7------5-4------7-----?------h-p----7------5-4------|
D|4-0---4-5-4-------7-------7---------?-0---4-5-4-------7-------7---|
A||-Guitar--(at least!)---------------|-Guitar----------------------|
E||-----------------------------------|-----------------------------|
p p h p p h
e||-5-3-2---3-2-0---2-----------------|-----------------3------------------|
B||-----------------------------------|------------------------------------|
G|4o----------------------------------4------------------------------------|
D|4o----------------------------------4------------------------------------|
A||-Keyboards-------------------------|-Keyboards--------------------------|
E||-----------------------------------|------------------------------------|
p p
e||-5--3--2---------------------------|------------------------------------|
B||-----------------------------------|------------------------------------|
G|4-----------------------------------|------------------------------------|
D|4-----------------------------------|------------------------------------|
A||-Keyboards-------------------------|-Keyboards--------------------------|
E||-----------------------------------|------------------------------------|
p
e||-2-0---h--p-p--h-------------------|-----------------0------------------|
B||-----3---5-3-2---3-----------------|------------------------------------|
G|4-----------------------------------|------------------------------------|
D|4-----------------------------------|------------------------------------|
A||-Keyboards-------------------------|-Keyboards--------------------------|
E||-----------------------------------|------------------------------------|
e||-----------------------------------|------------------------------------|
B||-----------------------------------|------------------------------------|
G|4-2---------------------------------|------------------------------------|
D|4-----------------------------------|------------------------------------|
A||-Keyboards-------------------------|-Keyboards--------------------------|
E||-----------------------------------|------------------------------------|
p p h p p h p p h p p h p p h p p h p p h p
e||-14-1210-12-10-9-10-9-7--9-7-5-----|-7-5-3---5-3-2---3-2-0---2-0---h----|
B||-----------------------------------|-----------------------------3------|
G|4-----------------------------------|------------------------------------|
D|4-----------------------------------|------------------------------------|
A||-Keyboards-------------------------|-Keyboards--------------------------|
E||-----------------------------------|------------------------------------|
e||-----------------------------------|------------------------------------|
B||-5---------------------------------|-----------------------------3------|
G|4-----------------------------------|------------------------------------|
D|4-----------------------------------|------------------------------------|
A||-Keyboards-------------------------|-Keyboards--------------------------|
E||-----------------------------------|------------------------------------|
e||-5-------3-------2-------0---------|-2-------0--------------------------|
B||-----3-------3-------3-------0-----|-----0-------0---3---0---3----------|
G|4-----------------------------------|------------------------------------|
D|4-----------------------------------|------------------------------------|
A||-Keyboards-------------------------|-Keyboards--------------------------|
E||-----------------------------------|------------------------------------|
e||-----------------------------------|
B||-----------------------------------|
G|4-2---------------------------------|
D|4-----------------------------------|
A||-Keyboards-------------------------|
E||-----------------------------------|
e||-2-------3---2---|-2-------0-------|-2-------3---2---|-2-------0--------|
B||-----------------|-------------3---|-----------------|-------------3----|
G|4o----------------|----------------o|-----------------|------------------|
D|4o----------------|----------------o|-----------------|------------------|
A||-----------------|-----------------|-----------------|------------------|
E||-----------------|-----------------|-----------------|------------------|
e||-2-------3---5---|-2-------0-------|
B||-----------------|-------------3---|
G|4-----------------|-----------------|
D|4-----------------|-----------------|
A||-----------------|-----------------|
E||-----------------|-----------------|
Lyrics:
The sun has left the sky
Now you can close your eyes
Leave the world behind until tomorrow
The dream is like a song
It leads you on and on
The piper plays his tune so you must follow
So far beyond the sky
Not knowing how or why
You realize this feeling is forever
And though another day
May steal your dreams away
You and the song will always stay together
Tablature Explanation:
NT = Nashville Tuning is when the low E, A, D & G strings are replaced with
lighter gauge strings and tuned one octave higher than normal.
| = bar separating measures
~ = vibrato
x = percussive note with no pitch; muted note
. = staccato; mute the note immediately after striking it
h = hammer
p = pull
s = slide (used when \ or / don't fit)
^ = bend string up to indicated pitch/fret shown in parenthesis ()
r = release bend (string/fret may be indicated)
t = fret board tap (not many of these with Rush)
/ = slide up
\ = slide down
x/ = pick slide up
x\ = pick slide down
<5> = natural harmonic (lightly touch the string at fret indicated)
[5] = artificial harmonic (use thumb to follow through the pick attack)
(5) = note sustained from previous measure
o =\ repeat sign
o =/
DC = "Da capo" - means "from the head", when you see these initials
you go back to the beginning of the piece of music.
DS = "Dal segno" - means "from the sign", go back in the tabulature
only as far as the (%) sign.
Coda = A passage at the end of a movement or composition that brings
it to a formal close.
Al
Coda = means "to the tail", tells you that you must go to the end
section which starts with the Coda sign (+).
RF = repeat and fade
rit = "ritardando" - Gradually slowing in tempo; retarding.
Other pertinent information:
Tuning: Standard [EADGBe].
Key signature:
Effects: 
Chord Chart Below for major chords
Tablature Format:
This Tablature is based on the format indicated below.
1 2 3 4 1 2 3 4 <--Quarter note beat locations
1 2 3 4 5 6 7 8 1 2 3 4 5 6 7 8 <--Eighth note beat locations
<--Effects/Misc Line
D C G/B <--Chord Line
e e e q q e e e e q e e e <--Note Duration Line (table below)
|-----2-----------|-----------------| <--High E string
|-------3---------|-----------------| <--B string
|---2-------2---0-|-----0-------0---| <--G string
|-0---------------|---2-------0---0-| <--D string
|-----------------|-3-----2---------| <--A string
|-----------------|-----------------| <--E string
Effects/Misc Line: Provides effects information, number of repeats, etc.
Chord Line: Provides the chord name for the chords used in the
tab below.
Note Duration Line: Provides the "value" of each note, e.g., whole,
half, quarter, etc.
Note Duration Designator Table:
w = Whole note h = Half note
q = Quarter note H = Dotted half note
Q = Dotted Quarter note s = Sixteenth note
e = Eighth note S = Dotted sixteenth note
E = Dotted eighth note + = Duration exceeds 2 measures
t = Thirty-second note
T = Dotted thirty-second note
Notes with two designations immediately adjacent to each other
have durations added (e.g., he = half note + eigth note, etc.)
String lines: Represent the strings of a guitar. The tab is laid
out as if you placed a right handed guitar on your
lap, string side up. A vertical line character "|"
represents a bar between measures. A dash "-" represents
each string. The numbers indicate which fret should
be fingered to sound the note. The first space after
every bar is a blank space that is almost never used.
Quarter notes are separated by 3 dashes, eighth notes
are separated by 1 dash. In an effort to make the
ASCII tab look as much like tab in a music book, the
notes are spaced out as accurately as possible. In the
event the notes will not fit into the format shown above,
the tab will be expanded (usually only required for
solos).

Добавлено: 27.02.2012
Другие материалы по этой песне:

Страница создана 27.02.2012
http://primanota.ru/camel/song-within-a-song-chords.htm
Привет, Гость.
Предлагаем пройти революционный курс по гитаре.
Подарок от PrimaNota.Ru, забирай!