PrimaNota.ru - самый крупный в мире бесплатный архив песенных текстов, аккордов, табулатур и нот


Calling - Wherever You Will Go Fingerstyle - таба, видео

Регистрация Запомнить меня
Войти через:  Facebook Google Twitter Vk Yandex Mail.ru

Calling - Wherever You Will Go Fingerstyle - таба, видео

Печатать
Просмотров: 179
-------------------------------------------------------------------------------
                           Wherever you will go - The Calling 
-------------------------------------------------------------------------------
Tabbed by:Ken Lavina
E-mail:kenbrian03@yahoo.com

Tuning:EADGBE
 
Intro:

e|--------------------|--------------------|------------------|----1-----1---1--|
B|----------1---------|------------0-------|------------1-----|-----------------|
G|------0----0--------|------0-------0-----|------2-------0---|-----------------|
D|----2---2----2------|----0----0------0---|----2----2------2-|-----------------|
A|--3----3------------|--2----2------------|--0----0----------|--3----3---------|
E|--------------------|--------------------|------------------|-1-------1--3----|

Verse: 1
 
e|--------------------|--------------------|------------------|-----------------|
B|--------0-1---1-----|--------0--1---1----|--------0-1---1---|--3---1---0--1---|
G|------0-----0-------|------0--0---0------|------2-----0-----|----0---0--------|
D|----2---------------|----0---------------|----2-------------|--3--------------|
A|--3-----------------|--2-----------------|--0---------------|-----------------|
E|--------------------|--------------------|------------------|-----------------|

e|--------------------|--------------------|------------------|-----------------|
B|--1-----0-1---1-----|--------3--1---1----|--------0-1---1---|--3---1---0--1---|
G|------0-----0-------|------0--0---0------|------2-----0-----|----0---0--------|
D|----2---------------|----0---------------|----2-------------|--3--------------|
A|--3-----------------|--2-----------------|--0---------------|-----------------|
E|--------------------|--------------------|------------------|-----------------|

Pre-Chorus:1

e|--------0-----------|----------0---------|------------------|-----------------|
B|--1---1---1---------|--3----3------------|--1--1---0-1------|--3---1-0-1------|
G|------0-------------|--------------------|-----2------------|-----------------| 
D|------2-------------|--------------------|--2--2------------|-----------------|
A|--3---3-------------|--------------------|------------------|-----------------|
E|--------------------|--3-3--3------------|------------------|--1---1----------|

e|--------0-----------|----------0---------|--1---0-----------|-----------------|
B|--1---1---1---------|--3----3------------|---------0-1------|--3---1-0-1------|
G|------0-------------|--------------------|------------------|-----------------| 
D|------2-------------|--------------------|--2---------------|-----------------|
A|--3---3-------------|--------------------|------------------|-----------------|
E|--------------------|--3-3--3------------|------------------|--1---1----------|


Chorus:

e|--------------------|--0-----------0-----|------------------|-----------------|
B|--1----0--1--1------|--1-----0--1--1-----|--1----0-1-1------|--3--1-0-1-------|
G|--0--0-------0------|--0--0--------0-----|--2--2-----2------|--2--------------|
D|--2----------2------|--0-----------0-----|--2--------2------|--3--------------|
A|--3----------3------|--2-----------2-----|------------------|-----------------|
E|--------------------|--3-----------3-----|------------------|-----------------|

e|--------------------|--0-----------0-----|------------------|-----------------|
B|--1----0--1--1------|--1-----3--1--1-----|--1----0-1-1------|--3--1-0-1--1----|
G|--0--0-------0------|--0--0--------0-----|--2--2-----2------|--2---------0----| 
D|--2----------2------|--0-----------0-----|--2--------2------|--3---------2----|
A|--3----------3------|--2-----------2-----|------------------|------------3----|
E|--------------------|--3-----------3-----|------------------|-----------------|

Verse:2

e|--------------------|--------------------|------------------|-----------------|
B|----0-1---1---------|---------3---2------|--------0--1---1--|--3---1---0--1---|
G|--0-----0-----------|------0----0--------|------0------0----|----0---0--------|
D|--------------------|----0---------------|----2-------------|--3--------------|
A|--------------------|--2-----------------|--0---------------|-----------------|
E|--------------------|--------------------|------------------|-----------------|

e|----------0---------|-------------0------|------------------|-----------------|
B|--1---0-------------|---------3----------|--------0--1---1--|--3---1---0--1---|
G|----0---0-----------|------0----0--------|------0------0----|----0---0--------|
D|--------------------|----0---------------|----2-------------|--3--------------|
A|--3-----------------|--2-----------------|--0---------------|-----------------|
E|--------------------|--------------------|------------------|-----------------|

Pre-Chorus:2

e|--------0-----------|----------0---------|------------------|-----------------|
B|--1---1---1---------|--3----3------------|--1--1----0-1-----|--3---1-0-1------|
G|------0-------------|--------------------|-----2------------|-----------------| 
D|------2-------------|--------------------|--2--2------------|-----------------|
A|--3---3-------------|--------------------|------------------|-----------------|
E|--------------------|--3-3--3------------|------------------|--1---1----------|

e|--------0-----------|----------0---------|--1---0-----------|--1--0-----------|
B|--1---1---1---------|--3----3------------|------1---0-1-----|--------3--1--0--|
G|------0-------------|--------------------|------2-----------|-----------------| 
D|------2-------------|--------------------|--2---2-----------|-----------------|
A|--3---3-------------|--------------------|------------------|-----------------|
E|--------------------|--3-3--3------------|------------------|--1--------------|

Chorus:

e|--------------------|--0-----------0-----|------------------|-----------------|
B|--1----0--1--1------|--1-----0--1--1-----|--1----0-1-1------|--3--1-0-1-------|
G|--0--0-------0------|--0--0--------0-----|--2--2-----2------|--2--------------|
D|--2----------2------|--0-----------0-----|--2--------2------|--3--------------|
A|--3----------3------|--2-----------2-----|------------------|-----------------|
E|--------------------|--3-----------3-----|------------------|-----------------|

e|--------------------|--0-----------0-----|------------------|-----------------|
B|--1----0--1--1------|--1-----3--1--1-----|--1----0-1-1------|--3--1-0-1--1----|
G|--0--0-------0------|--0--0--------0-----|--2--2-----2------|--2---------2----| 
D|--2----------2------|--0-----------0-----|--2--------2------|--3---------2----|
A|--3----------3------|--2-----------2-----|------------------|-----------------|
E|--------------------|--3-----------3-----|------------------|-----------------|

Bridge:


e|--------------------|----------------3-3-|------------------|-----------------|
B|--1--1--1--1--1-----|--3--1--0-------3-3-|--0-0-0-0---1--3--|-1-1--3-1-0------|
G|--2--2--2--2--2-----|----------2--0--0-0-|--0-0-0-0---------|-2-2--------2-0-0|
D|--2--2--2--2--2-----|----------------0-0-|------------------|-2-2-------------|
A|--------------------|----------------2-2-|------------------|-----------------|
E|--------------------|--1-------------3-3-|--0-0-0-0---------|------1----------|
 
 G,Em(bass only)

Verse:3

 
e|--------------------|--------------------|------------------|-----------------|
B|--------0-1---1-----|--------0--1---1----|--------0-1---1---|--3---1---0--1---|
G|------0-----0-------|------0--0---0------|------2-----0-----|----0---0--------|
D|----2---------------|----0---------------|----2-------------|--3--------------|
A|--3-----------------|--2-----------------|--0---------------|-----------------|
E|--------------------|--------------------|------------------|-----------------|

e|--------------------|--------------------|------------------|-----------------|
B|--1-----0-1---1-----|--------3--1---1----|--------0-1---1---|--0--1-1--0--1---|
G|------0-----0-------|------0--0---0------|------2-----0-----|-----------------|
D|----2---------------|----0---------------|----2-------------|-----------------|
A|--3-----------------|--2-----------------|--0---------------|-------------3---|
E|--------------------|--------------------|------------------|--1--------------|

Chorus:

e|--------------------|--0-----------0-----|------------------|-----------------|
B|--1----0--1--1------|--1-----0--1--1-----|--1----0-1-1------|--3--1-0-1-------|
G|--0--0-------0------|--0--0--------0-----|--2--2-----2------|--2--------------|
D|--2----------2------|--0-----------0-----|--2--------2------|--3--------------|
A|--3----------3------|--2-----------2-----|------------------|-----------------|
E|--------------------|--3-----------3-----|------------------|-----------------|

e|--------------------|--0-----------0-----|------------------|-----------------|
B|--1----0--1--1------|--1-----3--1--1-----|--1----0-1-1------|--3--1-0-1-------|
G|--0--0-------0------|--0--0--------0-----|--2--2-----2------|--2--------------| 
D|--2----------2------|--0-----------0-----|--2--------2------|--3--------------|
A|--3----------3------|--2-----------2-----|------------------|-----------------|
E|--------------------|--3-----------3-----|------------------|-----------------|

e|--------------------|--3-----------------|------------------|-----------------|
B|--1----0--1---------|--3-----0--1--------|--1----0-1--------|--3--1-0-1-------|
G|--0--0--------------|--0-----------------|--2--2------------|--2--------------|
D|--2-----------------|--0-----------------|--2---------------|--3--------------|
A|--3-----------------|--2-----------------|------------------|-----------------|
E|--------------------|--3-----------------|------------------|-----------------|

e|--------------------|--3--0--------------|------------------|-------1--0------|
B|--1----0--1---------|--3-----------------|--1----0-1--------|--3--1-----------|
G|--0--0--------------|--0-----------------|--2--2------------|--2--------------| 
D|--2-----------------|--0-----------------|--2---------------|--3--------------|
A|--3-----------------|--2-----------------|------------------|-----------------|
E|--------------------|--3-----------------|------------------|-----------------|


e|--------------------|--3-----------------|------------------|-----------------|
B|--1-----------------|--3-----------------|--1-----------0--1|--3--1-0-1-1-----|
G|--0-----------------|--0-----------------|--2---------------|--2--------0-----|
D|--2-----------------|--0-----------------|--2---------------|--3--------2-----|
A|--3-----------------|--2-----------------|------------------|-----------3-----|
E|--------------------|--3-----------------|------------------|-----------------|


Добавлено: 06.08.2015
Вам также может быть интересно:
Другие материалы по этой песне:
  • Аккорды и текст

Страница создана 06.08.2015
http://primanota.ru/calling/wherever-you-will-go-fingerstyle-chords.htm
Привет, Гость.
Предлагаем пройти революционный курс по гитаре.
Подарок от PrimaNota.Ru, забирай!