PrimaNota.ru - самый крупный в мире бесплатный архив песенных текстов, аккордов, табулатур и нот


Calling - For You - аккорды и текст, таба, перевод, видео

Регистрация Запомнить меня
Войти через:  Facebook Google Twitter Vk Yandex Mail.ru

Calling - For You - аккорды и текст, таба, перевод, видео

Печатать
Просмотров: 318
For You
Calling
Song Title: For You

Artist: The Calling

 

/- slide

 

Intro:

 

Actually the Intro is played by an Orchestra. But I make for an Guitar:

 

power chording: D, Em, F#m, G, A

 

e------------------------------------------|

B-222--------------------------------------|

G-222-222----------------------------------| Pause on the last chord:

D-000-222-444-666-7------------------------|       (3x)

A-----000-444-666-7------------------------|

E---------222-444-5------------------------|

 

 

 

Verses:

 

All the verse are played like this:

 

Im a the vision Im the justice..............................

 

power chording: F#m, Em, Bm, D, Em

 

e--------------------------------------------|

B--------------------------------------------|

G------222-4444------------------------------|
D-4444-222-4444-12-12-/-14-14/4--------------|         Repeat until the
A-4444-000-2222-12-12-/-14-14/4--------------|          end of a verse.
E-2222----------10-10-/-12-12/2--------------|

 

 

 

 

Chorus:

 

Im there for you............................................

 

power chording: A, Em, D

 

e-------------------------------------------|

B-------------------------------------------|
G------2222-7777----------------------------| Pause on the "D" in the
D-7777-2222-7777----------------------------|  last sentence of the
A-7777-0000-5555----------------------------|        chorus:
E-5555--------------------------------------|

 

 

 

 

 

 

Instrumental:

 

I don^Òt the exact tone of you 
plock it! But I just make
power chords

Of it.

 

e--------------------------------------------|

B--------------------------------------------|

G------2222-666-7777-------------------------|         (2x)

D-4444-2222-666-7777-444---------------------|

A-4444-0000-444-5555-444---------------------|

E-2222---------------222---------------------|

 

 

Coda:

E, D, A, E, D, D, F#m

 

You know its true^Å^Å^Å.

You were there for me^Å^Å^Å^Å^Å

And I^Òm there for you^Å^Å^Å^Å^Å^Å..

FOR YOU^Å^Å^Å. FOR YOU^Å^Å^Å^Å^Å. FOR YOU^Å^Å^Å^Å.

 

 

 

That^Òs all guys hope you like the tab. Comments, correction, abusers,
losers. Fill free to E-mail at louie_son3@yahoo.com
     
Добавлено: 23.08.2013
Другие материалы по этой песне:
  • Аккорды и текст

Страница создана 16.04.2012
http://primanota.ru/calling/for-you-chords.htm
Привет, Гость.
Предлагаем пройти революционный курс по гитаре.
Подарок от PrimaNota.Ru, забирай!