PrimaNota.ru - самый крупный в мире бесплатный архив песенных текстов, аккордов, табулатур и нот


Caliban - Seventh Soul - текст песни, таба, видео

Регистрация Запомнить меня
Войти через:  Facebook Google Twitter Vk Yandex Mail.ru

Caliban - Seventh Soul - текст песни, таба, видео

Печатать
Просмотров: 150
Уроки эстрадного вокала в Санкт-Петербурге
                          The Seventh Soul
                              
                              Caliban
                           Shadow Hearts


Tabbed by: mrbraz
Tuning: Drop Db (from low to high:Db,Ab,Db,Gb,Bb,Eb)

Intro
guitar 1
|-------------------------------------------------------------|
|-------------------------------------------------------------|
|-------------------------------------------------------------|
|-------------------------------------------------------------|
|-6p5---3h5---6p5--3h5----------6p5---3h5---5h6---6h8--9-8-6--|
|-----0-----0-----------000000------0-----0-----0-------------|
|     .     .           ......      .     .     .
|
|
|guitar 2
|-------------------------------------------------------------|
|-------------------------------------------------------------|
|-------------------------------------------------------------|
|-0~~~~-------------------------0~~~~-------------------3~~~--|
|-0~~~~------0-0--0-0-----------0~~~~-------0-0---0-0---3~~~--|
|-0~~~~------0-0--0-0-----------0~~~~-------0-0---0-0---3~~~--|
             . .  . .                       . .   . .  


|-------------------------------------------------------------|
|-------------------------------------------------------------|
|-------------------------------------------------------------|
|-------------------------------------------------------------|
|-6p5---3h5---6p5--3h5----------6p5---3h5---5h6---6h8--9-8-6--|
|-----0-----0-----------000000------0-----0-----0-------------|
|     .     .           ......      .     .     .
|
|
|
|-------------------------------------------------------------|
|-------------------------------------------------------------|
|-------------------------------------------------------------|
|-0~~~~-------------------------0~~~~-------------------3~~~--|
|-0~~~~------0-0--0-0-----------0~~~~-------0-0---0-0---3~~~--|
|-0~~~~------0-0--0-0-----------0~~~~-------0-0---0-0---3~~~--|
             . .  . .                       . .   . .  

Verse 1 pt.1
 
both guitars
|-------------------------------------------------------------|
|-------------------------------------------------------------|
|-------------------------------------------------------------|
|-------------------------------------------------------------|
|-6p5---3h5---6p5--3h5----------6p5---3h5---5h6---6h8--9-8-6--|
|-----0-----0-----------000000------0-----0-----0-------------|
      .     .           ......      .     .     .
        I travelled across the edges of my soul

|-------------------------------------------------------------|
|-------------------------------------------------------------|
|-------------------------------------------------------------|
|-------------------------------------------------------------|
|-6p5---3h5---6p5--3h5----------6p5---3h5---5h6---6h8--9-8-6--|
|-----0-----0-----------000000------0-----0-----0-------------|
      .     .           ......      .     .     .
              Add it - doesn't seem any better

|-------------------------------------------------------------|
|-------------------------------------------------------------|
|-------------------------------------------------------------|
|-------------------------------------------------------------|
|-6p5---3h5---6p5--3h5----------6p5---3h5---5h6---6h8--9-8-6--|
|-----0-----0-----------000000------0-----0-----0-------------|
      .     .           ......      .     .     .
                 When I cross the border

|-------------------------------------------------------------|
|-------------------------------------------------------------|
|-------------------------------------------------------------|
|-------------------------------------------------------------|
|-6p5---3h5---6p5--3h5----------6p5---3h5---5h6---6h8--9-8-6--|
|-----0-----0-----------000000------0-----0-----0-------------|
      .     .           ......      .     .     .
              The world falls to pieces but...


|--------------------------|
|--------------------------|
|--------------------------|
|-0~~~~~~----------3~~~~~--|
|-0~~~~~~---5h7p5--3~~~~~--|
|-0~~~~~~----------3~~~~~--|
    The world falls...

|--------------------------|
|--------------------------|
|--------------------------|
|-0~~~~~~----------3~~~~~--|
|-0~~~~~~---5h7p5--3~~~~~--|
|-0~~~~~~----------3~~~~~--|
    The world falls...


Verse 1 pt. 2
|-------------------------------------------------------------|
|-------------------------------------------------------------|
|-------------------------------------------------------------|
|-2------2------2---------------2~-----2~-----2~--------------|
|-0~-----0~-----0~--------------0~-----0~-----0~--------------|
|-0~-0-0-0~-0-0-0~-0-0--00-0-0--0~-0-0-0~-0-0-0~-0-0--00-0-0--|
     . .    . .    . .  .. . .     . .    . .    . .  .. . .
   Yeah                              

|---------------------------------------------------------------|
|---------------------------------------------------------------|
|---------------------------------------------------------------|
|-2------2------2---------------2~-----2~-----------------------|
|-0~-----0~-----0~--------------0~-----0~-----------------------|
|-0~-0-0-0~-0-0-0~-0-0--00-0-0--0~-0-0-0~-0-0--0-3-4-0-1-3-1-0--|
     . .    . .    . .  .. . .     . .    . . 
                      I often felt this sorrow

|-------------------------------------------------------------|
|-------------------------------------------------------------|
|-------------------------------------------------------------|
|-2------2------2---------------2~-----2~-----2~--------------|
|-0~-----0~-----0~--------------0~-----0~-----0~--------------|
|-0~-0-0-0~-0-0-0~-0-0--00-0-0--0~-0-0-0~-0-0-0~-0-0--00-0-0--|
     . .    . .    . .  .. . .     . .    . .    . .  .. . .
                       I often stand alone

|---------------------------------------------------------------|
|---------------------------------------------------------------|
|---------------------------------------------------------------|
|-2------2------2---------------2~-----2~-----------------------|
|-0~-----0~-----0~--------------0~-----0~-----------------------|
|-0~-0-0-0~-0-0-0~-0-0--00-0-0--0~-0-0-0~-0-0--0-3-4-0-1-3-1-0--|
     . .    . .    . .  .. . .     . .    . . 
                      I often stand alone!!


Verse 1 pt.3
|-------------------------------------------------------------|
|-------------------------------------------------------------|
|-------------------------------------------------------------|
|-------------------------------------------------------------|
|-6p5---3h5---6p5--3h5----------6p5---3h5---5h6---6h8--9-8-6--|
|-----0-----0-----------000000------0-----0-----0-------------|
      .     .           ......      .     .     .
          Dipping and diving to see the bottom but

|-------------------------------------------------------------|
|-------------------------------------------------------------|
|-------------------------------------------------------------|
|-------------------------------------------------------------|
|-6p5---3h5---6p5--3h5----------6p5---3h5---5h6---6h8--9-8-6--|
|-----0-----0-----------000000------0-----0-----0-------------|
      .     .           ......      .     .     .
             But where are the lines that divine?


Chorus pt.1

|--------------------------------------------------------------------|
|--------------------------------------------------------------------|
|------------------------7777777-9999999-10101010101010-1212121212---|
|------------------------xxxxxxx-xxxxxxx-x-x-x-x-x-x-x--x-x-x-x-x----|
|------------------------5555555-7777777-8-8-8-8-8-8-8--1010101010---|
|-0000000000000000000------------------------------------------------|
  ...................
                   Confidential sins have already taken my so called free-
 
|--------------------------------------------------------------------|
|--------------------------------------------------------------------|
|------------------------7777777-9999999-10101010101010-33333333333--|
|------------------------xxxxxxx-xxxxxxx-x-x-x-x-x-x-x--xxxxxxxxxxx--|
|------------------------5555555-7777777-8-8-8-8-8-8-8--11111111111--|
|-0000000000000000000------------------------------------------------|
  ...................
   -dom!!!!           And every choice I made framed my so called fu-

|--------------------------------------------------------------------|
|--------------------------------------------------------------------|
|------------------------7777777-9999999-10101010101010-1212121212---|
|------------------------xxxxxxx-xxxxxxx-x-x-x-x-x-x-x--x-x-x-x-x----|
|------------------------5555555-7777777-8-8-8-8-8-8-8--1010101010---|
|-0000000000000000000------------------------------------------------|
  ...................
   -ture!!!!       Confidential sins have already taken my so called free-
 
|--------------------------------------------------------------------|
|--------------------------------------------------------------------|
|------------------------7777777-9999999-10101010101010-33333333333--|
|------------------------xxxxxxx-xxxxxxx-x-x-x-x-x-x-x--xxxxxxxxxxx--|
|------------------------5555555-7777777-8-8-8-8-8-8-8--11111111111--|
|-0000000000000000000------------------------------------------------|
  ...................
   -dom!!!!           And every choice I made framed my so called future!


Then
|--------------------------|
|--------------------------|
|--------------------------|
|-0~~~~~~----------3~~~~~--|
|-0~~~~~~---5h7p5--3~~~~~--|
|-0~~~~~~----------3~~~~~--|
    The world falls...

|--------------------------|
|--------------------------|
|--------------------------|
|-0~~~~~~----------3~~~~~--|
|-0~~~~~~---5h7p5--3~~~~~--|
|-0~~~~~~----------3~~~~~--|
    The world falls...


Chorus pt.2
|-------------------------------------------------------------------|
|-------------------------------------------------------------------|
|-------------------------------------------------------------------|
|-------------------------------------------------------------------|
|-0--------------------------7-5h7p3--3--------------1--------------|
|-0-0-0-0-0-0-0-0-0-0-0-0-0-----------3-3-3-3-3-3-3--1-1-1-1-1-1-1--|
    . . . . . . . . . . . .             . . . . . .    . . . . . .
                      Every sunset is.....

|-------------------------------------------------------------------|
|-------------------------------------------------------------------|
|-------------------------------------------------------------------|
|-------------------------------------------------------------------|
|-0--------------------------7-5h7p3--3--------------1--------------|
|-0-0-0-0-0-0-0-0-0-0-0-0-0-----------3-3-3-3-3-3-3--1-1-1-1-1-1-1--|
    . . . . . . . . . . . .             . . . . . .    . . . . . .
                  Every sunset is the rebirth...


|-------------------------------------------------------------------|
|-------------------------------------------------------------------|
|-------------------------------------------------------------------|
|-------------------------------------------------------------------|
|-0--------------------------7-5h7p3--3--------------1--------------|
|-0-0-0-0-0-0-0-0-0-0-0-0-0-----------3-3-3-3-3-3-3--1-1-1-1-1-1-1--|
    . . . . . . . . . . . .             . . . . . .    . . . . . .
                    Of a new experience.


Verse 2 pt.1
|-------------------------------------------------------------|
|-------------------------------------------------------------|
|-------------------------------------------------------------|
|-2------2------2---------------2~-----2~-----2~--------------|
|-0~-----0~-----0~--------------0~-----0~-----0~--------------|
|-0~-0-0-0~-0-0-0~-0-0--00-0-0--0~-0-0-0~-0-0-0~-0-0--00-0-0--|
     . .    . .    . .  .. . .     . .    . .    . .  .. . .
   Yeah                              

|---------------------------------------------------------------|
|---------------------------------------------------------------|
|---------------------------------------------------------------|
|-2------2------2---------------2~-----2~-----------------------|
|-0~-----0~-----0~--------------0~-----0~-----------------------|
|-0~-0-0-0~-0-0-0~-0-0--00-0-0--0~-0-0-0~-0-0--0-3-4-0-1-3-1-0--|
     . .    . .    . .  .. . .     . .    . . 
                      I often felt this sorrow

|-------------------------------------------------------------|
|-------------------------------------------------------------|
|-------------------------------------------------------------|
|-2------2------2---------------2~-----2~-----2~--------------|
|-0~-----0~-----0~--------------0~-----0~-----0~--------------|
|-0~-0-0-0~-0-0-0~-0-0--00-0-0--0~-0-0-0~-0-0-0~-0-0--00-0-0--|
     . .    . .    . .  .. . .     . .    . .    . .  .. . .
                       I often stand alone

|---------------------------------------------------------------|
|---------------------------------------------------------------|
|---------------------------------------------------------------|
|-2------2------2---------------2~-----2~-----------------------|
|-0~-----0~-----0~--------------0~-----0~-----------------------|
|-0~-0-0-0~-0-0-0~-0-0--00-0-0--0~-0-0-0~-0-0--0-3-4-0-1-3-1-0--|
     . .    . .    . .  .. . .     . .    . . 
                      I often stand alone!!


Verse 2 pt.2

guitar 1
|-------------------------------------------------------------|
|-------------------------------------------------------------|
|-------------------------------------------------------------|
|-------------------------------------------------------------|
|-6p5---3h5---6p5--3h5----------6p5---3h5---5h6---6h8--9-8-6--|
|-----0-----0-----------000000------0-----0-----0-------------|
|     .     .           ......      .     .     .
|
|
|guitar 2
|-------------------------------------------------------------|
|-------------------------------------------------------------|
|-------------------------------------------------------------|
|-0~~~~-------------------------0~~~~-------------------3~~~--|
|-0~~~~------0-0--0-0-----------0~~~~-------0-0---0-0---3~~~--|
|-0~~~~------0-0--0-0-----------0~~~~-------0-0---0-0---3~~~--|
             . .  . .                       . .   . .  


|-------------------------------------------------------------|
|-------------------------------------------------------------|
|-------------------------------------------------------------|
|-------------------------------------------------------------|
|-6p5---3h5---6p5--3h5----------6p5---3h5---5h6---6h8--9-8-6--|
|-----0-----0-----------000000------0-----0-----0-------------|
|     .     .           ......      .     .     .
|
|
|
|-------------------------------------------------------------|
|-------------------------------------------------------------|
|-------------------------------------------------------------|
|-0~~~~-------------------------0~~~~-------------------3~~~--|
|-0~~~~------0-0--0-0-----------0~~~~-------0-0---0-0---3~~~--|
|-0~~~~------0-0--0-0-----------0~~~~-------0-0---0-0---3~~~--|
             . .  . .                       . .   . .  


both guitars
|-------------------------------------------------------------|
|-------------------------------------------------------------|
|-------------------------------------------------------------|
|-------------------------------------------------------------|
|-6p5---3h5---6p5--3h5----------6p5---3h5---5h6---6h8--9-8-6--|
|-----0-----0-----------000000------0-----0-----0-------------|
      .     .           ......      .     .     .
          I no longer care about the way I gone

|-------------------------------------------------------------|
|-------------------------------------------------------------|
|-------------------------------------------------------------|
|-------------------------------------------------------------|
|-6p5---3h5---6p5--3h5----------6p5---3h5---5h6---6h8--9-8-6--|
|-----0-----0-----------000000------0-----0-----0-------------|
      .     .           ......      .     .     .
                  Burning like a fire

|-------------------------------------------------------------|
|-------------------------------------------------------------|
|-------------------------------------------------------------|
|-------------------------------------------------------------|
|-6p5---3h5---6p5--3h5----------6p5---3h5---5h6---6h8--9-8-6--|
|-----0-----0-----------000000------0-----0-----0-------------|
      .     .           ......      .     .     .
            Smother in the end - wasting time

|-------------------------------------------------------------|
|-------------------------------------------------------------|
|-------------------------------------------------------------|
|-------------------------------------------------------------|
|-6p5---3h5---6p5--3h5----------6p5---3h5---5h6---6h8--9-8-6--|
|-----0-----0-----------000000------0-----0-----0-------------|
      .     .           ......      .     .     .
                 While I'm expecting Death!!


Ending
|-------------------------------------------------------|
|-------------------------------------------------------|
|-------------------------------------------------------|
|-------------------------------------------------------|
|-0-------------------3-3-3--0-------------------3-3-3--|
|-0-0-0-0--000-0--0-0-3-3-3--0-0-0-0--000-0--0-0-3-3-3--|
    . . .  ... .  . .          . . .  ... .  . . 
                     Death!!                     Death!!


|-------------------------------------------------------|
|-------------------------------------------------------|
|-------------------------------------------------------|
|-------------------------------------------------------|
|-0-------------------3-3-3--0-------------------3-3-3--|
|-0-0-0-0--000-0--0-0-3-3-3--0-0-0-0--000-0--0-0-3-3-3--|
    . . .  ... .  . .          . . .  ... .  . . 
                     Death!!                     Death!!
Добавлено: 24.02.2012
Другие материалы по этой песне:
  • Аккорды и текст

Страница создана 24.02.2012
http://primanota.ru/caliban/seventh-soul-chords.htm
Привет, Гость.
Предлагаем пройти революционный курс по гитаре.
Подарок от PrimaNota.Ru, забирай!