PrimaNota.ru - самый крупный в мире бесплатный архив песенных текстов, аккордов, табулатур и нот


Caliban - Exit - таба, видео

Регистрация Запомнить меня
Войти через:  Facebook Google Twitter Vk Yandex Mail.ru

Caliban - Exit - таба, видео

Печатать
Просмотров: 115
Title: Exit
Artist: Caliban
Album: Vent
Author: Maxim Yaskevich

Intro:

E|---------------------------------|---------------------------------|---------3-------3---5--------|
B|-----------------1---0-----------|-----------------1---3---1---0---|-------------------------6---5|
G|---------2---------------2-------|---------0-----------------------|------------------------------|
D|-----2-------2---------------2---|-----2-------2-------------------|-----0-------0----------------|
A|-0-------------------------------|-3-------------------------------|------------------------------|
E|---------------------------------|---------------------------------|-3----------------------------|


E|---------------------------------|
B|---------3-------3---5-----------|
G|-------------------------5---4---|
D|-----3-------3-------------------|
A|---------------------------------|
E|-1-------------------------------|


Main:


E|-0-----------0-------0---|-0-----------0-------0---|
B|-0---1-------1-------1---|-1---0-------0-------0---|
G|-2-----------2-------2---|-2-----------2-------2---|
D|-2-----------2-------2---|-2-----------2-------2---|
A|-0-----------0-------0---|-0-----------0-------0---|
E|-0-----------0-------0---|-0-----------0-------0---|


E|-0-----------0-------0---|-0----0----0----|-0-----------0-------0---|-0-----------0-------0---|
B|-0---1-------1-------1---|-3----1----0----|-0---1-------1-------1---|-1---0-------0-------0---|
G|-2-----------2-------2---|-2----2----2----|-0-----------0-------0---|-0-----------0-------0---|
D|-2-----------2-------2---|-2----2----2----|-2-----------2-------2---|-2-----------2-------2---|
A|-0-----------0-------0---|-0----0----0----|-3-----------3-------3---|-3-----------3-------3---|
E|-0-----------0-------0---|-0----0----0----|-0-----------0-------0---|-0-----------0-------0---|


E|-0-----------0-------0---|-0----0----0----|-----3-------3-------3---|-3---0-------0-------0---|
B|-0---1-------1-------1---|-3----1----0----|-----3-------3-------3---|-3---0-------0-------0---|
G|-0-----------0-------0---|-0----0----0----|-4---4-------4-------4---|-4---4-------4-------4---|
D|-2-----------2-------2---|-2----2----2----|-5---5-------5-------5---|-5---5-------5-------5---|
A|-3-----------3-------3---|-3----3----3----|-5---5-------5-------5---|-5---5-------5-------5---|
E|-0-----------0-------0---|-0----0----0----|-3---3-------3-------3---|-3---3-------3-------3---|


E|-0---3-------3-------3---|-5----3----3----|-----1-------1-------1---|-1---0-------0-------0---|
B|-0---3-------3-------3---|-3----3----6----|-----1-------1-------1---|-1---0-------0-------0---|
G|-4---4-------4-------4---|-4----4----4----|-2---2-------2-------2---|-2---2-------2-------2---|
D|-5---5-------5-------5---|-5----5----5----|-3---3-------3-------3---|-3---3-------3-------3---|
A|-5---5-------5-------5---|-5----5----5----|-3---3-------3-------3---|-3---3-------3-------3---|
E|-3---3-------3-------3---|-3----3----3----|-1---1-------1-------1---|-1---1-------1-------1---|


E|-0---1-------1-------1---|-1---0-------0-------0---|
B|-0---1-------1-------1---|-1---0-------0-------0---|
G|-2---2-------2-------2---|-2---2-------2-------2---|
D|-3---3-------3-------3---|-3---3-------3-------3---|
A|-3---3-------3-------3---|-3---3-------3-------3---|
E|-1---1-------1-------1---|-1---1-------1-------1---|
Добавлено: 14.10.2013
Другие материалы по этой песне:

Страница создана 15.04.2012
http://primanota.ru/caliban/exit-chords.htm
Привет, Гость.
Предлагаем пройти революционный курс по гитаре.
Подарок от PrimaNota.Ru, забирай!