PrimaNota.ru - самый крупный в мире бесплатный архив песенных текстов, аккордов, табулатур и нот


Caliban - Together Alone - таба, видео

Регистрация Запомнить меня
Войти через:  Facebook Google Twitter Vk Yandex Mail.ru

Caliban - Together Alone - таба, видео

Печатать
Просмотров: 173
Уроки эстрадного вокала в Санкт-Петербурге
Artist - Caliban
Album - The Undying Darkness
Song - Together Alone

Tuning - Drop C  CGCFAD
Tabbed By - soilborn


/ - Slide up    \ - Slide down
. - Palm mute

 Guitar 1                  x3               4th time
|----------------------------|----------------------|
|----------------------------|----------------------|
|----------------------------|----------------------|
|----------------------------|----------------------|
|----------------------------|----------------------|
|--66666666-5-55-55-5-55-55--|--66666666-5-55-55-5--|
|PM........ . .. .. . .. ..     ........ . .. .. .
|
|Guitar 2
|---------------------------------------------------|
|---------------------------------------------------|
|---------------------------------------------------|
|--77777777777777777777777777777777777777777777777--|
|---------------------------------------------------|
|---------------------------------------------------|
                   *Gradual bend up half step at end

|----------------------------|
|----------------------------|    The sevens play again briefly over this
|----------------------------|    part at the end of the 4th time gradually
|----------------------------|    bending up a half step.
|--00000000-0-00-00-0-00-00--|
|--00000000-0-00-00-0-00-00--|x8
|PM........ . .. .. . .. ..

                                  x3                  4th time
|-----------------------------------|-------------------------|
|-----------------------------------|-------------------12----|
|-----------------------------------|-------------------15----|
|-----------------------------------|-------------------------|
|-----------------------------------|-------------------------|
|-000000000000-1/2--000000-5-5\4-4--|--0000000000000000-------|
PM............      ......             ................

|-----------------------------------|
|-----------------------------------|
|-----------------------------------|
|-----------------------------------|
|-000000000000------000000----------|
|-000000000000-1/2--000000-5-5\4-4--|x2
PM............      ......

|------------------------------------------------------------------|
|------------------------------------------------------------------|
|------------------------------------------------------------------|
|----------------------------------3--2----------------------------|
|-000000000000------000000---------1--0----2--3----5--4----0-1-2/3-|
|-000000000000-1/2--000000-5-5\4-0-------0-2--3--0-5--4--0-0-1-2/3-|
PM............      ......       .       .       .       .

|--------------------------------|
|--------------------------------|
|--------------------------------|
|--------------------------------|
|-0-0-000-0-1-1-2-0-0-0-5-5-4-4--|
|-0-0-000-0-1-1-2-0-0-0-5-5-4-4--|x2
PM. . ... .       . . .

|---------------------------------------------------------------|
|---------------------------------------------------------------|
|---------------------------------------------------------------|
|-------------------------------3--2----------------------------|
|-0-0-000-0-1-1-2-0-0-0-5-5-4---1--0----2--3----5--4----0-1-2/3-|
|-0-0-000-0-1-2-2-0-0-0-5-5-4-0-------0-2--3--0-5--4--0-0-1-2/3-|
PM. . ... .       . . .       .       .       .       .

|--------------------------------|
|--------------------------------|
|--------------------------------|
|--------------------------------|
|-0-0-000-0-1-1-2-0-0-0-5-5-4-4--|
|-0-0-000-0-1-1-2-0-0-0-5-5-4-4--|x2
PM. . ... .       . . .

|---------------------------------------------------------------|
|---------------------------------------------------------------|
|---------------------------------------------------------------|
|-------------------------------3--2----------------------------|
|-0-0-000-0-1-1-2-0-0-0-5-5-4---1--0----2--3----5--4----0-1-2/3-|
|-0-0-000-0-1-1-2-0-0-0-5-5-4-0-------0-2--3--0-5--4--0-0-1-2/3-|
PM. . ... .       . . .       .       .       .       .

|----------------------------|
|----------------------------|
|----------------------------|
|----------------------------|
|--00000000-0-00-00-0-00-00--|
|--00000000-0-00-00-0-00-00--|x4
|PM........ . .. .. . .. ..

I pretty sure this isn't 100% but it's all I can get for now.
Any comments on this part would be appreciated.

 Guitar 1
|-----------------------------------------|
|-----------------------------------------|
|--2-222-22222-222------------------------|
|--2-222-22222-2220-------3---3-3-33------|
|--0-000-00000-0000-0-0-0-3---3-3-33------|
|-------------------2-2-2/3---3-3-33------|
|
|
|Guitar 2 (Clean)
|--12-------13-10-------------------------|
|-----10-11-------------10-11-10----------|
|-----------------------------------------|
|-----------------------------------------|
|-----------------------------------------|
|-----------------------------------------|

 Guitar 1
|-----------------------------------------|
|-----------------------------------------|
|--2-222-22222-222------------------------|
|--2-222-22222-2220-------3---3-3-33------|
|--0-000-00000-0000-0-0-0-3---3-3-33------|
|-------------------2-2-2/3---3-3-33------|
|
|
|Guitar 2 (Clean)
|--12-------13-10----12----13-12----------|
|-----10-11-------------10--------10------|
|-----------------------------------------|
|-----------------------------------------|
|-----------------------------------------|
|-----------------------------------------|

 Guitar 1
|-----------------------------------------|
|-----------------------------------------|
|--2-222-22222-222------------------------|
|--2-222-22222-2220-------3---3-3-33------|
|--0-000-00000-0000-0-0-0-3---3-3-33------|
|-------------------2-2-2/3---3-3-33------|
|
|
|Guitar 2 (Clean)
|--12-------13-10-------------------------|
|-----10-11-------------10-11-10----------|
|-----------------------------------------|
|-----------------------------------------|
|-----------------------------------------|
|-----------------------------------------|

 Guitar 1
|-------------------------------------------------|
|---------------------------------------------12--|
|--2-222-22222-222----------------------------15--|
|--2-222-22222-2220-------3-----------------------|
|--0-000-00000-0000-0-0-0-3-----------------------|
|-------------------2-2-2/3--0000000000000000-----|
|PM                          ................
|
|
|Guitar 2 (Clean)
|--12-------13-10----12----13-12------------| Doesn't quite line up.
|-----10-11-------------10------------------| Last note should be
|-------------------------------------------| before the zeroes of
|-------------------------------------------| guitar 1.
|-------------------------------------------|
|-------------------------------------------|

|-----------------------------------|
|-----------------------------------|
|-----------------------------------|
|-----------------------------------|
|-000000000000------000000----------|
|-000000000000-1/2--000000-5-5\4-4--|x2
PM............      ......

|------------------------------------------------------------------|
|------------------------------------------------------------------|
|------------------------------------------------------------------|
|----------------------------------3--2----------------------------|
|-000000000000------000000---------1--0----2--3----5--4----0-1-2/3-|
|-000000000000-1/2--000000-5-5\4-0-------0-2--3--0-5--4--0-0-1-2/3-|
PM............      ......       .       .       .       .

|--------------------------------|
|--------------------------------|
|--------------------------------|
|--------------------------------|
|-0-0-000-0-1-1-2-0-0-0-5-5-4-4--|
|-0-0-000-0-1-1-2-0-0-0-5-5-4-4--|x2
PM. . ... .       . . .

|---------------------------------------------------------------|
|---------------------------------------------------------------|
|---------------------------------------------------------------|
|-------------------------------3--2----------------------------|
|-0-0-000-0-1-1-2-0-0-0-5-5-4---1--0----2--3----5--4----0-1-2/3-|
|-0-0-000-0-1-1-2-0-0-0-5-5-4-0-------0-2--3--0-5--4--0-0-1-2/3-|
PM. . ... .       . . .       .       .       .       .

|--------------------------------|
|--------------------------------|
|--------------------------------|
|--------------------------------|
|-0-0-000-0-1-1-2-0-0-0-5-5-4-4--|
|-0-0-000-0-1-1-2-0-0-0-5-5-4-4--|x2
PM. . ... .       . . .

|---------------------------------------------------------------|
|---------------------------------------------------------------|
|---------------------------------------------------------------|
|-------------------------------3--2----------------------------|
|-0-0-000-0-1-1-2-0-0-0-5-5-4---1--0----2--3----5--4----0-1-2/3-|
|-0-0-000-0-1-1-2-0-0-0-5-5-4-0-------0-2--3--0-5--4--0-0-1-2/3-|
PM. . ... .       . . .       .       .       .       .

 Guitar 1                  x3               4th time
|----------------------------|----------------------|
|----------------------------|----------------------|
|----------------------------|----------------------|
|----------------------------|----------------------|
|----------------------------|----------------------|
|--66666666-5-55-55-5-55-55--|--66666666-5-55-55-5--|
|PM........ . .. .. . .. ..     ........ . .. .. .
|
|Guitar 2
|---------------------------------------------------|
|---------------------------------------------------|
|---------------------------------------------------|
|--77777777777777777777777777777777777777777777777--|
|---------------------------------------------------|
|---------------------------------------------------|
                   *Gradual bend up half step at end

|----------------------------|
|----------------------------|  The sevens play again briefly over this
|----------------------------|  part at the end of the 4th time gradually
|----------------------------|  bending up a half step.
|--00000000-0-00-00-0-00-00--|
|--00000000-0-00-00-0-00-00--|x8
|PM........ . .. .. . .. ..
Добавлено: 24.06.2012
Другие материалы по этой песне:
  • Аккорды и текст

Страница создана 24.06.2012
http://primanota.ru/caliban/together-alone-chords.htm
Привет, Гость.
Предлагаем пройти революционный курс по гитаре.
Подарок от PrimaNota.Ru, забирай!